357 - Cudan San

Transkripcija: Milan Petrovic (comi011@beotel.net)
Album        : Domaci zadatak


      G             G                      C
   e-----------------------------------------------------------------
   H-----------------------------------------------1-----------------
   G--------0------------0-----------0-----------0---0---------------
   D------0---0--------0---0-------0---------------------------------
   A----------------------------------------3------------------------
   E---3------------3------------1-----------------------------------
    
       Osecaj me    dobro drzi   za ovo     tlo......
 
       D            E            C   
   e---------------------0-------------------------------------------
   H--------3----------0---0-----------1-----------------------------
   G------2---2----------------------0-------------------------------
   D---0------------2------------------------------------------------
   A-----------------------------3---------------2--0----------------
   E---------------------------------------------------2-------------

      U talasima    vetraaa      cuce se         glaaas.....
    
    Jedna napomena koje ce vam olaksati sviranje: ne morate hvatati
    cele akorde i zamarati svoje prste!!! Brojevima su naznaceni pragovi
    na kojima ce se svirati dati ton, probajte da iskoristite te brojeve 
    i kao raspored prstiju!!! Ovo se sasvim slucajno poklopilo i vazi 
    samo u ovom slucaju! Ako date akorde tacnije tonove odlucite da 
    svirate na drugim mestima...slucajnost nece vaziti!!!!  
     

    Tekst pesme:
  
    Osecaj me dobro drzi za ovo tlo,
    Nebo jos je modro i ja osecam to
    Da mogu da te vidim pored drveta svog,
    Necemo ni znati ali sredice bog...
    U talasima vetra, cuce se glas
    Neko ko nas voli, spojice nas
    Zagrljaje zime ne osecamo jer gorimo
    Na ledu i ostajemo!!! 
    Cudan san...aha..jos uvek sam sam....