357 - Dobro Znaj

Album        : Pesme sa severa
Transkripcija: Djolle (republic_dragacevo@yahoo.com )


Intro na trubi:
e--------------------------- -------------------------
h--------------------------- -------------------------
g------6-6---------6-------- ------6-6---------6------
d-7--9-----9--7--9---7------ -7--9-----9--7--9----9---
a--------------------------- -------------------------
e--------------------------- -------------------------

e-----------------------------------------------------
h-----------------------------------------------------
g---6-7--7-6---------6-------------6--6----------6----
d-9----------9--7--9---9-7---7--9-------9--7--9----7--
a-----------------------------------------------------
e-----------------------------------------------------

A5 distorzija

A5
Dobro znaj da uvek tu sam ja
	               D5
dobro znaj da necu nikada
                       A5
da te ostavim, da te zaboravim
      E5		  A5
dobro znaj da uvek tu sam ja 
      D5               A5
da te ostavim, da te zaboravim
      E5                  A5
dobro znaj da uvek tu sam ja.

Dobro znaj da ludo volim te
ja ne mogu draga bez tebe
srce svoje sam spreman da ti dam
sto za tebe ludo udara                         
srce svoje sam spreman da ti dam
sto za tebe ludo udara.

solo kao intro uz pratnju

Jednog dana kada prodje sve
kad me budu stigle godine
znaj da nikada nece doci dan
dan kad necu s'tobom biti ja
znaj da nikada nece doci dan
dan kad necu s'tobom biti ja.

Te noci kada izdahnem
zadnje pivo za tebe popijem
i na nebu tom na koje idem ja
sija moja ZVEZDA CRVENA

zadnja dva stiha se ponavljaju jos 8x.