357 - I Can't Get You Out Of My Head

Album         : Iz gazda Zikine kuhinje 2002
Transkripcija : Vai


Intro (Riff 1) :

    P.M. -  -  -  -       -  -  -  -  -
E||---------------------|-------------------|
B||---------------------|-------------------|
G||*--------------------|-------------------|
D||*---5--7--7--5--7----|--5--7--7--5--7----|
A||----3--5--5--3--5----|--3--5--5--3--5----|
E||---------------------|-------------------|

      -  -  -  -  -       -  -  -  -  -
  |---------------------|-------------------||
  |---------------------|-------------------||
  |---------------------|------------------*||
  |---------------------|------------------*||
  |---5--7--7--5--7-----|--5--7--7--5--7----||
  |---3--5--5--3--5-----|--3--5--5--3--5----||


Riff 1: svira i ide ono 'la la ..' moze se odsvirati ovako:
     Dm                                        Am
E||-----------|-----------------------|-----------------|------------------------||
B||--6--6--6--|--6----6----6--6----8--|--5----5----5----|--5----5----5--5--------||
G||*----------|-----------------------|-----------------|--------------------7--*||
D||*----------|-----------------------|-----------------|-----------------------*||
A||-----------|-----------------------|-----------------|------------------------||
E||-----------|-----------------------|-----------------|------------------------||
   LA LA LA     LA   LA   LA LA   LA    LA   LA   LA      LA   LA   LA LA   LA



Riff 1 2x (mozete svirati riff 1 ili jednostavnije ove akorde):

       Dm
I just can't get you out of my head
           Am
girl, your lovin' is all i think about
       Dm
I just can't get you out of my head
           Am
girl, it's more then a dare to think about


Refren:

A#    Am
Every night,
G     Am
every day
G                        Am(prelaz)--> A||-------4-5--7-8--7-5--4-5--4---------
Just to be there in your arms          E||--5-6------------------------6--5~~--
          Dm   Am
Won't you sta-a-ay,
          Dm   Am
won't you sta-a-ay
     A#                   Am
Stay forever and ever and ever

Dm(Dm7)
la la la, la la lala la
Am
la la la, la la lala la


I just can't get you out of my head... ponavlja se Riff 1


Refren:

There's a dark
secret in me
Don`t leave me locked in your heart

Set me free
Feel the need in me
Set me free
Stay forever and ever and ever

La la la...

I just can't get you out of my head...

Kraj !

Napomena: Sve akorde mozete svirati kao petice (naravno, za one koji
sviraju na elektricnoj)