357 - Kisa

Album        : Made in Serbia (live)
Transkripcija: Vai ocdesignz@hotmail.com


Gm
Kisa ce da sakrije misao,
sto gori na suncu
Zelju ti nisam napisao,
jos uvek je cuvam u srcu
A sve mi govori da te zadrzim,
u snovima trcim za tvojom suknjom
Leci cu nocas sa pogledom tvojim,
stenguti ud satrt zudnjom

Riff 1
E||--------------------|--------------------|
B||--------------------|--------------------|
G||--------------------|--------------------|
D||--7----7----7-------|--7~----------------| 2X
A||--5----8----7----8--|--5~----------------|
E||-----------------6--|--------------------|

Gm
I mirisa tvoga nikada dosta
I osmeha slatkog ruzicaste boje
Tada sam uzeo i sada ludim
jer srce mi cupaju madjije tvoje

Prelaz 1:
Gm Gm  Gm F       3x
            o je

Ref:
D#
Hajdemo jos jednom, probaj me sada, zelim to, zelim to
D#                                       C B / B A
Ubodi me stiklom k'o nekada jer zelim tooo

Prelaz 2 (truba i gitara):
E||--------------------------------------------||----------------------------||
B||--11-10----10-------------------------------||---11--11----11--10---------||
G||--------12-----12-10-12--10----10-----------||*--12--12----12--10--------*||
D||----------------------------12-----12-10-12-||*--------------------------*||
A||--------------------------------------------||----------------------------||
E||--------------------------------------------||----------------------------||

Kisa ce da sakrije misao,
sto gori na suncu
Zelju ti nisam napisao,
jos uvek je cuvam u srcu
A sve mi govori da te zadrzim,
u snovima trcim za tvojom suknjom
Leci cu nocas sa pogledom tvojim,
stenguti ud satrt zudnjom

Riff 1

I mirisa tvoga nikada dosta
I osmeha slatkog ruzicaste boje
Tada sam uzeo i sada ludim
jer srce mi cupaju madjije tvoje

Prelaz 1
Ref.
Solo
Ref.
Kraj