357 - Znas Li Ko Te Ljubi Silno

Album         : Made in Serbia/Pesme iznad istoka i zapada
Transkripcija : Vai


Intro/Riff 1 (fura tokom cele pesme)
E||--------------------------|-------------------------|
B||--------------------------|-------------------------|
G||--------------------------|-------------------------|
D||--------------------------|-------------------------|
A||--------------------------|-------------------------|
E||--3h-5--5--5--3h-5--5--5--|--3h-5--5----3h-5--5--5--|

-------------------------||
-------------------------||
-------------------------||
--------------------5----||
--------------------5----||
--3h-5--5--5--x--x--3----||


Riff 1 -
Znas li ko te ljubi silno?
Ko te cuva dan i noc,
Ko ti daje izobilno
Da odolis vragu moc?


Am
Znas li ko ti zivot dao,
G
Oca, majku, brata tvog,
Am
I ko te je obasjao
G
Svetlim zrakom Duha svog?

Am
Znas li ko je umro za nas,
G
Na Golgoti, znas li to,
Am
I radosti obecane,
G
Ko ti sprema znas li to?
Am                          Riff 1
Znas li ko te ljubi silno-o-o?


Riff 1 - (palm mute)
Moras znati ko to cini,
Ko to tako ljubi nas,
To je Gospod sa visine,
To je Hristos, svima Spas!


Am
Zato i ti, oh, seti se,
G
Pa mu svoje srce daj,
Am
Kad mu skrivis, zaplaci se,
G
I zamoli oprostaj!

Am
U toj suzi pokajanja
G
Zablistace Hristov sjaj,
Am
Imaj u Njeg pouzdanja,
G
Otvorice tebi Raj!

Riff 1 -
Znas li ko te ljubi silno?

Znas li ko te ljubi silno?


Solo
Prva strofa (znas li ko te ljubi silno...)
Drugi refren (zato i ti oh, seti se...)
Kraj