Metal Bendovi - Tornado - The Wall

Album        : Triumph of the king
Transkripcija: Djolle



Uvod:
A--2--2-2-2--2-2-2--2-2---0-4--  bass 4X ( i jos 2x ista sema iz D)
E-----------------------2------

e--9--9h10-7--9--10h12-9--14--14h15-12--14-15-12-15-10-15-10-9--10/12-10
h-----------------------------------------------------------------------
mali solo preko bass-a


Hm (razlaganje)
Isn't everything a price we have to pay
           G
There's no love, only hate
Don't cross the line the Devil's gate
A
Just wash away the pain
When seven minds like seven sides
    E
Are cold...

prelaz 1 (distorzija)

d------------2-------
a------2-5-4---5-4-2-
e--2-3---------------


H (distrorzija)
You can't see it's face
              C# e D  C#
But the voice is everywhere
D G
A Nightmare
                        A         prelaz 2 a--0-2-4-5/7--4-
That puls you down into despair
Em
As a Slave, blind and weak
A Secret you must keep a Painfull
F#                     prelaz 1
Grip in your sleep...

        G
Oh, the Wall, you can't get away
A Face of Goodness
               H
But it had the Devil's shape
                  A  prelaz 2
You're burried in you
Em                 F#
Running into deep, swallen failure
Hm      A           G
Lost forever in its dream...

Hm G Hm G (razlaganje)

You can't win this race
Cause the Wall is in your head
The Wall of steelness
Gray and bloody red                (isto kao druga strofa)
Like the way life makes Death
Realize before you regret
Be ready for the End...

REFREN
Hm G Hm G (razlaganje)

Solo
e----------------------|--------------------
H----------------------|--------------------
G----------------------|--------------------
D--------------5-------|--------------5/7-5-  2X
A-2/4-4--2-------5-4-5-|-2/4-4--2-----------
E----------5-3---------|----------5-3-------

e-------------------------------------------
H---------------------5-7b-7----------------
G-7-6-6h7-4~--4-4-6-7--------7-6------------
D-------------------------------------------
A-------------------------------------------
e-------------------------------------------

e-------------------------------------------
H-------------------------------------------
G-7-6-6h7-----7-6---------4-6---------------
D---------7~------9-7-7---------------------
A-------------------------------------------
e-------------------------------------------

e-------------------------------------------
H---------------------5-7b-5---5------------
G-7-6-6h7-4~--4-4-6-7--------7--------------
D-------------------------------------------
A-------------------------------------------
e-------------------------------------------

e-----------------12-10--9-7-6--6h7/14------
H-8-7---5---5-------------------------------
G---------7---4-----------------------------
D-------------------------------------------
A-------------------------------------------
e-------------------------------------------

dalje ide neki deo ko ga skine skidam kapu
REFREN
END.