Metal Bendovi - Ultimatum - Mojoj Ljubavi

Album        : Ulice zla
Transkripcija: Juka, Lurcher@net.hr


intro:
A5 C5
A5  C5  D5 D5  A5
(u pocetnom solu)


intro (kad krene ritam)
A5  F5  C5  G5
A5  F5  C5 D5  A5

1.kitica

A5                  F5
nocas si rekla zadnje ne
C5                        G5
i  s drugim gledala svitanje
A5                 F5
nisi se mogla svladati
C5        D5       A5
 vihoru mrznje i ljubavi


2.kitica

lutao sam sasvim sam

stazama lakih? vjetrova

gledao ne bi li nasao nju

ranjenu vilu na prijestolju

bridge:
C5            D5          A5    A5 G5 A5 G5
zauvijek u srcu jedina
C5         D5       E5
ostat ce zivjet sjecanja
(E5)
i ova pjesma o njoj



ref:
C5    G5    A5
mojoj ljubavi
C5    G5    A5
mojoj ljubavi
C5    G5    A5
mojoj ljubavi
C5                 G5                  D5
za one suze sto molile su ostani



solo:
A5 F5 C5 G5

A5 F5 C5 D5 A5

A5 F5 C5 G5

A5 F5 C5 D5 A5


intro:
A5 C5
A5  C5  D5 D5  A5
(kao u pocetnom solu)

bridge:

C5              D5             A5    A5 G5 A5 G5
jos uvijek se nadam potajno
C5         D5       E5
da cu cuti nesto o njoj
(E5)
(sestri nestaloj)


E||--------12--10--------------------------------------12--10----12---15--12--10--12
B||--10------------13-p-12----12--13-------10r----10--------------------------------
G||-------------------------------------12------------------------------------------
D||---------------------------------------------------------------------------------
A||---------------------------------------------------------------------------------
E||---------------------------------------------------------------------------------

E||--------12--10-------------------------------------------------------------------
B||--10-----------13-p-12----12--13-------10r--------10--12--13--12--10-----12---10r
G||------------------------------------12---------12--------------------12----12----
D||---------------------------------------------------------------------------------
A||---------------------------------------------------------------------------------
E||---------------------------------------------------------------------------------



SOLO:
E||--------------12------10------|--------------------15----13--|
B||--10------10------10------12--|--13--12--10--12r-------------|
G||------------------------------|------------------------------|
D||------------------------------|------------------------------|
A||------------------------------|------------------------------|
E||------------------------------|------------------------------|

--12--10--12--13p-12--10------10r-|--------------------------|
--------------------------13------|--13--12--10--------------|
----------------------------------|--------------12r---------|
----------------------------------|--------------------------|
----------------------------------|--------------------------|
----------------------------------|--------------------------|

--------------12------10------|----------------------------|
--10------10------10------12--|--13--12--10--12------------|
------------------------------|------------------------12--|
------------------------------|----------------------------|
------------------------------|----------------------------|
------------------------------|----------------------------|

--------------10------------------|--------------------------|
--10--12--13------13--12p-10------|--10--12--13--10----------|
------------------------------12--|--------------------------|
----------------------------------|--------------------------|
----------------------------------|--------------------------|
----------------------------------|--------------------------|

--------------------------|--------------------------|----------------12----|
--10----10------12----13--|----------------12----13--|----------------------|
--------------------------|--10----10----------------|--12------------------|
--------------------------|--------------------------|----------------------|
--------------------------|--------------------------|----------------------|
--------------------------|--------------------------|----------------------|

--10h-12p-10h-12p-10h-12p-10h-12p-|----------------------------|
----------------------------------|--10----10------12h-13--12--|
----------------------------------|----------------------------|
----------------------------------|----------------------------|
----------------------------------|----------------------------|
----------------------------------|----------------------------|

--------------------------|--------------10------------------|
----------------12----10--|------10--12------13--12--10------|
--10----10----------------|--12--------------------------12--|
--------------------------|----------------------------------|
--------------------------|----------------------------------|
--------------------------|----------------------------------|

--------------------------|----------|--------|--------||
--10--12--13--10r---------|----------|--------|--------||
--------------------------|----------|--------|--------||
--------------------------|----------|--------|--------||
--------------------------|----------|--------|--------||
--------------------------|----------|--------|--------||