Razno - Bosna - Boje Noci - I Jos Cekas Onu Pravu

Transkripcija: Sven Vidovic-Popek, Cazin-BiH (vida_snk@yahoo.com)
Album        : 13


Intro: A   H   C#

Neznam da li je 100% tocno ali otprilike se svira slicno?
    A(sus2)                      H          C#
e|-----------------------------------------------------------
H|------0---------0------0-----------0--------------0------0-
G|--------2---------2------2-----------2----------2---2------
D|----2-----2----------------2-----0------------0-------0----
A|--0---------0-------0----------2----------2h4--------------
E|-----------------------------------------------------------


Strofa: (svira se kao i Intro, tj. ponavlja se)

I jos cekas onu pravu
mladu, ljepu, neokaljanu
I cekas sta ce za nju reci
vazne su ti tudje rijeci
Aha....aaaaa
Aha....aaaaa

I jos cekas onu pravu
crnu, smedju, finu plavu
i da ces zbog nje pokrit glavu
il opet sam na svoju stranu
Aha....aaaaa
Aha....aaaaa


Refren:
            A                            H      C#
e|------------------------------------------------------------
H|------------------------------------------------------------
G|------------------------------------------------------------
D|---------------------------------------4-4--4/6~--6b~\------
A|----------7--7--7--7----7--------------2-4--2/4~--4b~\------
E|---12\----5--5--5--5----5b~~--3-2-0-------------------------
      A                            H      C#      E
e|------------------------------------------------------------
H|------------------------------------------------------------
G|------------------------------------------------------------
D|---------------------------------4-4--4/6~--6b~/9-9-9\------
A-----7--7--7--7----7--------------2-4--2/4~--4b~/7-7-7\------
E|----5--5--5--5----5b~~--3-2-0-------------------------------

Ma sta ti fali covjece
dal budes sretan uvece
Pored tebe prolaze
a pritisle te godine

I sta ces reci onog dana
kad jedna bude ruku dala
Dal ces reci "Boze hvala"
il mislit je li ona prava
Aha....aaaaa
Aha....aaaaa

Refren:
Ma sta ti fali covjece
dal budes sretan uvece
Pored tebe prolaze
a pritisle te godine

Ma sta ti fali covjece
dal budes sretan uvece
Pored tebe prolaze
a pritisle te godine

Solo:

Refren:
Ma sta ti fali covjece
dal budes sretan uvece
Pored tebe prolaze
a pritisle te godine

Ma sta ti fali covjece
dal budes sretan uvece
Pored tebe prolaze
a pritisle te godine