Razno - Bosna - Predgrupa - Bez Tebe

Transkripcija: metalemija@yahoo.com - MEMIJA
Home         : www.2akordi.net


intro:
       Dm                      Cm              Fm
e|-------------------|-----------------|-------------------------------|
b|-------------------|-----------------|-------------------------------|
g|---6---6-6h7p6-6---|---4---4h5p4-4---|---2---2h3-2---2---2---2h3-2---|
d|-7---7-----------7-|-5---5---------5-|-3---3-------3---3---3-------3-|
a|-------------------|-----------------|-------------------------------|
e|-------------------|-----------------|-------------------------------|

intro 2x

(ovaj intro ponavlja se kroz strofu)

Kazu mi da sam lud
to sto mislim na tebe
da s tobom sve je uzalud
ja znao sam ali jace je
i kako da se okrenem
da izbrisem taj svijet
kada sam izgubljen
bez nje i zrak gusi me (D5)

ref:
     Bez tebe sam umoran
      Dm         Cm
     Bez tebe ja se ne sjecam (D5)
     Svog imena
                 Dm           Cm
     I ko sam sad bez tebe
     I dan je mmmmmm (*) bezvezan

(*)
  ------------------------------------------------
  ------------------------------------------------
  ---6---6/7-6----4---4----2---3p2-2---2---2h3p2--
  -7---7--------5---5----3---3-------3---3------3-
  ------------------------------------------------
  ------------------------------------------------

...ide druga strofa (drugi text) isto razlaganje

...pa opet refren (sve isto)

...jos jedna strofa

...pa malo zesci refren:

     D5*
     Bez tebe sam umoran
     C5*
     Bez tebe ja se ne sjecam
     Svog imena
     I ko sam sad bez tebe
     I dan je bezvezan
     I nestajemo
     U mraku vidim tvoje sjene
     I ja osjecam
     Miris tvoga tijela
     Zove me na kraj
     To je kraj

intro sa pocetka 'fade out'
----------------------------------------------------

     D5*                      C5*
----------------------------------------------------
----------------------------------------------------
-7-x-7-7-7-7--7-x-7-7-7---5-x-5-5-5--5-x-5-5-5------
-7-x-7-7-7-7--7-x-7-7-7---5-x-5-5-5--5-x-5-5-5------
-5-x-5-5-5-5--5-x-5-5-5---3-x-3-3-3--3-x-3-3-3------
----------------------------------------------------