Razno - Hrvatska - Brener Depilacija - Zena S Koridora

Transkripcija: fler  (mrwhite@net.hr)



           E                    A                   D5                   E5
      0 2 2 1 x x          x 0 2 2 2 x          x 5 7 7 x x          x 7 9 9 x x

          F#5                  A5                 E5open                F#5II
     x 9 11 11 x x         x 0 2 2 x x          0 2 2 x x x          2 4 4 x x x

          C#5                 A5III                 G#5                  B5
      x 4 6 6 x x          5 7 7 x x x          4 6 6 x x x          7 9 9 x x x


Gtr I (E A D G B E) - 'Ritam'
Gtr II (E A D G B E) - 'Solo'


  Intro
  Q=120
  A         E             D5              E5      F#5             E5
 4/4
  Gtr I
            PM            PM|             PM|                PM       PM|
  H..       E   H..       S S   H..       S S   E  E  E  +S  S  E E E S S
|-------------|---------------|---------------|---------------------------|
|-2-----------|---------------|---------------|---------------------------|
|-2-----------|-1-------------|-7-------------|-9s11-11-(11)---11s9-9-----|
|-2-----------|-2-------------|-7-------------|-9s11-11-(11)---11s9-9-----|
|-0-----------|-2---------5-5-|-5---------7-7-|-7s=9--9--(9)-9--9s7-7-----|
|-----------0-|-0-------------|---------------|-----------------------0-0-|
|
| Gtr II
| W             W               W               E  E  E  +E     E E Q
|-------------|---------------|---------------|---------------------------|
|-------------|---------------|---------------|---------------------------|
|-2-----------|---------------|-7-------------|-9s11-11-(11)---11s9-9-----|
|-2-----------|-2-------------|-7-------------|-9s11-11-(11)---11s9-9-----|
|-0-----------|-2-------------|-5-------------|-7s=9--9--(9)----9s7-7-----|
|-------------|-0-------------|---------------|---------------------------|


  A             E         D5              E5    F#5   E5
                          PM|             PM|
  H.      E E   H..       S S   H..       S S    H    E Q.
|-------------|---------------|---------------|---------------||
|-2-------2---|---------------|---------------|---------------||
|-2-------2---|-1-------------|-7-------------|---------------||
|-2-------2---|-2-------------|-7-------------|-11----9-------||
|-0-------0-0-|-2---------5-5-|-5---------7-7-|--9----7-------||
|-------------|-0-------------|---------------|---------------||
|
| W             W               W                H    E Q.
|-------------|---------------|---------------|---------------||
|-------------|---------------|---------------|---------------||
|-2-----------|---------------|-7-------------|---------------||
|-2-----------|-2-------------|-7-------------|-11----9-------||
|-0-----------|-2-------------|-5-------------|--9----7-------||
|-------------|-0-------------|---------------|---------------||


  Q=240
                 A5                               E5open
  Gtrs I, II
                       PM      PM     PM   PM           PM      PM
  Wx2            Q  Q  E E +E  E   Q  E Q  E Q    Q  Q  E E +E  E
|------------||------------------|--------------|------------------|
|------------||o-----------------|--------------|------------------|
|------------||--2--2--2-2-(2)---|-2----2----2--|------------------|
|------------||--2--2--2-2-(2)---|-2----2----2--|-2--2--2-2-(2)----|
|------------||o-0--0--0-0-(0)-0-|-0--0-0--0-0--|-2--2--2-2-(2)----|
|------------||------------------|--------------|-0--0--0-0-(0)-0--|


                 D5
     PM   PM           PM      PM     PM   PM
  Q  E Q  E Q    Q  Q  E E +E  E   Q  E Q  E Q
|--------------|-----------------|--------------|
|--------------|-----------------|--------------|
|--------------|-7--7--7-7-(7)---|-7----7----7--|
|-2----2----2--|-7--7--7-7-(7)---|-7----7----7--|
|-2----2----2--|-5--5--5-5-(5)-5-|-5--5-5--5-5--|
|-0--0-0--0-0--|-----------------|--------------|


                        1.               2.
  F#5                    E5               E5
           PM        PM     PM   PM
   Q   Q   E  E  +E  E   Q  E Q  E Q      Q  H.
|----------------------|---------------||----------||
|----------------------|--------------o||----------||
|----------------------|---------------||----------||
|-11--11--11-11-(11)---|-9----9----9---||-9--------||
|--9---9---9--9--(9)-9-|-7--7-7--7-7--o||-7--------||
|----------------------|---------------||----------||


   Verse
    $
    $$
    A5                               E5open
    PM-----------------------------------------------------------|
    Q  Q  E E +E  E   Q  E Q  E Q    Q  Q  E E +E  E   Q  E Q  E Q
||------------------|--------------|-----------------|--------------|
||o-----------------|--------------|-----------------|--------------|
||--2--2--2-2-(2)---|-2----2----2--|-----------------|--------------|
||--2--2--2-2-(2)---|-2----2----2--|-2--2--2-2-(2)---|-2----2----2--|
||o-0--0--0-0-(0)-0-|-0--0-0--0-0--|-2--2--2-2-(2)---|-2----2----2--|
||------------------|--------------|-0--0--0-0-(0)-0-|-0--0-0--0-0--|


  D5                               F#5                    E5
  PM----------------------------------------------------------------|
  Q  Q  E E +E  E   Q  E Q  E Q     Q   Q   E  E  +E  E   Q  E Q  E Q
|-----------------|--------------|----------------------|---------------|
|-----------------|--------------|----------------------|---------------|
|-7--7--7-7-(7)---|-7----7----7--|----------------------|---------------|
|-7--7--7-7-(7)---|-7----7----7--|-11--11--11-11-(11)---|-9----9----9---|
|-5--5--5-5-(5)-5-|-5--5-5--5-5--|--9---9---9--9--(9)-9-|-7--7-7--7-7---|
|-----------------|--------------|----------------------|---------------|


  A5                              E5open
  PM|    PM|      PM|    PM|      PM|    PM|      PM|    PM--|
  E E Q  E E Q    E E Q  E E Q    E E Q  E E Q    E E Q  E E Q
|---------------|---------------|---------------|----------------|
|---------------|---------------|---------------|----------------|
|-----2------2--|-----2------2--|---------------|----------------|
|-----2------2--|-----2------2--|-----2------2--|-----2------2---|
|-0-0-0--0-0-0--|-0-0-0--0-0-0--|-----2------2--|-----2------2---|
|---------------|---------------|-0-0-0--0-0-0--|-0-0-0--0-0-0---|


                                                          To Coda
                                                          To Coda
  D5                              F#5               E5
  PM|    PM|      PM|    PM|      PM|     PM|       PM|    PM|
  E E Q  E E Q    E E Q  E E Q    E E  Q  E E  Q    E E Q  E E Q
|---------------|---------------|-----------------|----------------||
|---------------|---------------|-----------------|----------------||
|-----7------7--|-----7------7--|-----------------|----------------||
|-----7------7--|-----7------7--|-----11------11--|-----9------9---||
|-5-5-5--5-5-5--|-5-5-5--5-5-5--|-9-9--9--9-9--9--|-7-7-7--7-7-7---||
|---------------|---------------|-----------------|----------------||


 Bridge
  1.
  A5
  Gtr I
         PM      PM        PM     PM
  Q   Q  E E +E  E    Q    E  Q   E Q
|------------------|-------------------|
|------------------|-------------------|
|-2---2--2-2-(2)---|--2-------2-----2--|
|-2---2--2-2-(2)---|--2-------2-----2--|
|-0---0--0-0-(0)-0-|--0----0--0---0-0--|
|------------------|-------------------|
|
| Gtr II
|     ~                             ~
| E E H      +Q      +Q   +E  E E E q
|------------------|-------------------|
|------------------|-------------------|
|-4s6-6------(6)---|-(6)--(6)-6-6p4----|
|------------------|----------------7--|
|------------------|-------------------|
|------------------|-------------------|


  E5open
           PM       PM       PM    PM
  Q   Q    E  E +E  E    Q   E Q   E Q
|---------------------|------------------|
|---------------------|------------------|
|---------------------|------------------|
|-2---2----2--2-(2)---|--2-----2-----2---|
|-2---2----2--2-(2)---|--2-----2-----2---|
|-0---0----0--0-(0)-0-|--0---0-0---0-0---|
|
| E E E E +H            +Q   Q   E E Q
|---------------------|------------------|
|---------------------|------------------|
|-6---6---------------|--------------6---|
|-------6-(6)---------|-(6)--6---6h7-----|
|---------------------|------------------|
|---------------------|------------------|


  D5                                        F#5
        PM      PM       PM       PM                     PM        PM
  Q  Q  E E +E  E    Q   E Q      E   Q      Q     Q     E  E  +E  E
|-----------------|-----------------------|--------------------------|
|-----------------|-----------------------|--------------------------|
|-7--7--7-7-(7)---|--7-----7----------7---|--------------------------|
|-7--7--7-7-(7)---|--7-----7----------7---|-11----11----11-11-(11)---|
|-5--5--5-5-(5)-5-|--5---5-5------5---5---|--9-----9-----9--9--(9)-9-|
|-----------------|-----------------------|--------------------------|
|
| ~
| W                 +H       +E  +E   E E    Q.      Q.         Q
|-----------------|-----------------------|--------------------------|
|-----------------|-----------------------|--------------------------|
|-7---------------|-(7)------(7)-(7)\-7p6-|--7b9-----7----------6----|
|-----------------|-----------------------|--------------------------|
|-----------------|-----------------------|--------------------------|
|-----------------|-----------------------|--------------------------|


  E5                    A5
      PM   PM                   PM      PM      PM    PM
  Q   E Q  E  Q         Q   Q   E E +E  E   Q   E Q   E Q
|---------------------|-------------------|----------------|
|---------------------|-------------------|----------------|
|---------------------|-2---2---2-2-(2)---|-2-----2-----2--|
|-9-----9-----9-------|-2---2---2-2-(2)---|-2-----2-----2--|
|-7---7-7--7--7-------|-0---0---0-0-(0)-0-|-0---0-0---0-0--|
|---------------------|-------------------|----------------|
|
| ~~
| H.         +E  +E     E E E E E E  E  E   E E E E E E q
|---------------------|-------------------|----------------|
|---------------------|-------------------|----------------|
|-4----------(4)-(4)\-|-4s6-6-6-6-6--6--6-|-6-6-6-6-6p4----|
|---------------------|-------------------|-------------7--|
|---------------------|-------------------|----------------|
|---------------------|-------------------|----------------|


  E5open                                   D5
           PM       PM        PM    PM            PM      PM
  Q   Q    E  E +E  E    Q    E Q   E Q    Q  Q   E E +E  E
|---------------------|------------------|------------------|
|---------------------|------------------|------------------|
|---------------------|------------------|-7--7---7-7-(7)---|
|-2---2----2--2-(2)---|--2------2-----2--|-7--7---7-7-(7)---|
|-2---2----2--2-(2)---|--2------2-----2--|-5--5---5-5-(5)-5-|
|-0---0----0--0-(0)-0-|--0----0-0---0-0--|------------------|
|
|                                             ~~
| E E E E +H            +Q    Q   E E Q    Q  H.
|---------------------|------------------|------------------|
|---------------------|------------------|------------------|
|-6---6---------------|---------------6--|-7--7-------------|
|-------6-(6)---------|-(6)\--6---6h7----|------------------|
|---------------------|------------------|------------------|
|---------------------|------------------|------------------|


                          F#5                         E5
       PM       PM                     PM       PM
   Q   E Q      E   Q      Q     Q     E  E  +E E     Q  H.
|-----------------------|---------------------------|-----------||
|-----------------------|---------------------------|----------o||
|--7-----7----------7---|---------------------------|-----------||
|--7-----7----------7---|-11----11----11-11-(11)----|-9---------||
|--5---5-5------5---5---|--9-----9-----9--9--(9)9---|-7--------o||
|-----------------------|---------------------------|-----------||
|
| +H       +E  +E   E E    Q.      Q.         E S S   Q  H.
|-----------------------|---------------------------|-----------||
|-----------------------|---------------------------|----------o||
|-(7)------(7)-(7)\-6h7-|--7b9-----7----------6h7p6-|-4---------||
|-----------------------|---------------------------|-----------||
|-----------------------|---------------------------|----------o||
|-----------------------|---------------------------|-----------||


 Chorus
  2.120
  F#5II            E5open      C#5A5IG#5 F#5II            E5open      C#5A5IG#5
  Gtrs I, II
                           PM|                                    PM|
  S E S E E H      S E S E S S E. E. E   S E S E E H      S E S E S S E. E. E
|----------------|---------------------|----------------|----------------------|
|----------------|---------------------|----------------|----------------------|
|----------------|-------------6-------|----------------|-------------6--------|
|-4-4-4-4--------|-2-2-2-2-----6--7--6-|-4-4-4-4--------|-2-2-2-2-----6--7--6--|
|-4-4-4-4--------|-2-2-2-2-----4--7--6-|-4-4-4-4--------|-2-2-2-2-----4--7--6--|
|-2-2-2-2--------|-0-0-0-0-0-0----5--4-|-2-2-2-2--------|-0-0-0-0-0-0----5--4--|


  F#5II            E5open      C#5A5IG#5
                           PM|
  S E S E E H      S E S E S S E. E. E
|----------------|---------------------|
|----------------|---------------------|
|----------------|-------------6-------|
|-4-4-4-4--------|-2-2-2-2-----6--7--6-|
|-4-4-4-4--------|-2-2-2-2-----4--7--6-|
|-2-2-2-2--------|-0-0-0-0-0-0----5--4-|


  F#5II                 E5open      C#5A5IG#5
                                PM|
  S E S E E E E S S E   S E S E S S E. E. E
|---------------------|---------------------||
|---------------------|---------------------||
|---------------------|-------------6-------||
|-4-4-4-4---x-x-x-x---|-2-2-2-2-----6--7--6-||
|-4-4-4-4---x-x-x-x---|-2-2-2-2-----4--7--6-||
|-2-2-2-2---x-x-x-x---|-0-0-0-0-0-0----5--4-||


 Bridge
  Q=240
  A5
  Gtr I
         PM      PM        PM     PM
  Q   Q  E E +E  E    Q    E  Q   E Q
|------------------|-------------------|
|------------------|-------------------|
|-2---2--2-2-(2)---|--2-------2-----2--|
|-2---2--2-2-(2)---|--2-------2-----2--|
|-0---0--0-0-(0)-0-|--0----0--0---0-0--|
|------------------|-------------------|
|
| Gtr II
|     ~                             ~
| E E H      +Q      +Q   +E  E E E q
|------------------|-------------------|
|------------------|-------------------|
|-4s6-6------(6)---|-(6)--(6)-6-6p4----|
|------------------|----------------7--|
|------------------|-------------------|
|------------------|-------------------|


  E5open
           PM       PM       PM    PM
  Q   Q    E  E +E  E    Q   E Q   E Q
|---------------------|------------------|
|---------------------|------------------|
|---------------------|------------------|
|-2---2----2--2-(2)---|--2-----2-----2---|
|-2---2----2--2-(2)---|--2-----2-----2---|
|-0---0----0--0-(0)-0-|--0---0-0---0-0---|
|
| E E E E +H            +Q   Q   E E Q
|---------------------|------------------|
|---------------------|------------------|
|-6---6---------------|--------------6---|
|-------6-(6)---------|-(6)--6---6h7-----|
|---------------------|------------------|
|---------------------|------------------|


  D5                                        F#5
        PM      PM       PM       PM                     PM        PM
  Q  Q  E E +E  E    Q   E Q      E   Q      Q     Q     E  E  +E  E
|-----------------|-----------------------|--------------------------|
|-----------------|-----------------------|--------------------------|
|-7--7--7-7-(7)---|--7-----7----------7---|--------------------------|
|-7--7--7-7-(7)---|--7-----7----------7---|-11----11----11-11-(11)---|
|-5--5--5-5-(5)-5-|--5---5-5------5---5---|--9-----9-----9--9--(9)-9-|
|-----------------|-----------------------|--------------------------|
|
| ~
| W                 +H       +E  +E   E E    Q.      Q.         Q
|-----------------|-----------------------|--------------------------|
|-----------------|-----------------------|--------------------------|
|-7---------------|-(7)------(7)-(7)\-7p6-|--7b9-----7----------6----|
|-----------------|-----------------------|--------------------------|
|-----------------|-----------------------|--------------------------|
|-----------------|-----------------------|--------------------------|


  E5                    A5
      PM   PM                   PM      PM      PM    PM
  Q   E Q  E  Q         Q   Q   E E +E  E   Q   E Q   E Q
|---------------------|-------------------|----------------|
|---------------------|-------------------|----------------|
|---------------------|-2---2---2-2-(2)---|-2-----2-----2--|
|-9-----9-----9-------|-2---2---2-2-(2)---|-2-----2-----2--|
|-7---7-7--7--7-------|-0---0---0-0-(0)-0-|-0---0-0---0-0--|
|---------------------|-------------------|----------------|
|
| ~~
| H.         +E  +E     E E E E E E  E  E   E E E E E E q
|---------------------|-------------------|----------------|
|---------------------|-------------------|----------------|
|-4----------(4)-(4)\-|-4s6-6-6-6-6--6--6-|-6-6-6-6-6p4----|
|---------------------|-------------------|-------------7--|
|---------------------|-------------------|----------------|
|---------------------|-------------------|----------------|


  E5open                                   D5
           PM       PM        PM    PM            PM      PM
  Q   Q    E  E +E  E    Q    E Q   E Q    Q  Q   E E +E  E
|---------------------|------------------|------------------|
|---------------------|------------------|------------------|
|---------------------|------------------|-7--7---7-7-(7)---|
|-2---2----2--2-(2)---|--2------2-----2--|-7--7---7-7-(7)---|
|-2---2----2--2-(2)---|--2------2-----2--|-5--5---5-5-(5)-5-|
|-0---0----0--0-(0)-0-|--0----0-0---0-0--|------------------|
|
|                                             ~~
| E E E E +H            +Q    Q   E E Q    Q  H.
|---------------------|------------------|------------------|
|---------------------|------------------|------------------|
|-6---6---------------|---------------6--|-7--7-------------|
|-------6-(6)---------|-(6)\--6---6h7----|------------------|
|---------------------|------------------|------------------|
|---------------------|------------------|------------------|


                                              D.S. al Coda
                          F#5                       E5
     PM       PM                     PM       PM
  Q  E Q      E   Q        Q    Q    E  E  +E E     Q  H.
|---------------------|---------------------------|-----------||
|---------------------|---------------------------|-----------||
|-7----7----------7---|---------------------------|-----------||
|-7----7----------7---|---11---11---11-11-(11)----|-9---------||
|-5--5-5------5---5---|----9----9----9--9--(9)9---|-7---------||
|---------------------|---------------------------|-----------||
|
| H      +E  +E   E E   a  E E  E E  E  E   E S S   Q  H.
|---------------------|---------------------------|-----------||
|---------------------|---------------------------|-----------||
|-7------(7)-(7)\-6h7-|-7s=9-9--9-7--7--7---6h7p6-|-4---------||
|---------------------|---------------------------|-----------||
|---------------------|---------------------------|-----------||
|---------------------|---------------------------|-----------||


 Chorus
  Q=120
  &
  F#5II            E5open      C#5A5IG#5 F#5II            E5open      C#5A5IG#5
  Gtrs I, II
                           PM|                                    PM|
  S E S E E H      S E S E S S E. E. E   S E S E E H      S E S E S S E. E. E
|----------------|---------------------|----------------|----------------------|
|----------------|---------------------|----------------|----------------------|
|----------------|-------------6-------|----------------|-------------6--------|
|-4-4-4-4--------|-2-2-2-2-----6--7--6-|-4-4-4-4--------|-2-2-2-2-----6--7--6--|
|-4-4-4-4--------|-2-2-2-2-----4--7--6-|-4-4-4-4--------|-2-2-2-2-----4--7--6--|
|-2-2-2-2--------|-0-0-0-0-0-0----5--4-|-2-2-2-2--------|-0-0-0-0-0-0----5--4--|


  F#5II            E5open      C#5A5IG#5
                           PM|
  S E S E E H      S E S E S S E. E. E
|----------------|---------------------|
|----------------|---------------------|
|----------------|-------------6-------|
|-4-4-4-4--------|-2-2-2-2-----6--7--6-|
|-4-4-4-4--------|-2-2-2-2-----4--7--6-|
|-2-2-2-2--------|-0-0-0-0-0-0----5--4-|


  F#5II                 E5open      C#5A5IG#5
                                PM|
  S E S E E E E S S E   S E S E S S E. E. E
|---------------------|---------------------||
|---------------------|---------------------||
|---------------------|-------------6-------||
|-4-4-4-4---x-x-x-x---|-2-2-2-2-----6--7--6-||
|-4-4-4-4---x-x-x-x---|-2-2-2-2-----4--7--6-||
|-2-2-2-2---x-x-x-x---|-0-0-0-0-0-0----5--4-||


 Guitar Solo
  Q=240
  A5
  Gtr I
         PM      PM        PM     PM
  Q   Q  E E +E  E    Q    E  Q   E Q
|------------------|-------------------|
|------------------|-------------------|
|-2---2--2-2-(2)---|--2-------2-----2--|
|-2---2--2-2-(2)---|--2-------2-----2--|
|-0---0--0-0-(0)-0-|--0----0--0---0-0--|
|------------------|-------------------|
|
| Gtr II
|     ~                             ~
| E E H      +Q      +Q   +E  E E E q
|------------------|-------------------|
|------------------|-------------------|
|-4s6-6------(6)---|-(6)--(6)-6-6p4----|
|------------------|----------------7--|
|------------------|-------------------|
|------------------|-------------------|


  E5open
           PM       PM       PM    PM
  Q   Q    E  E +E  E    Q   E Q   E Q
|---------------------|------------------|
|---------------------|------------------|
|---------------------|------------------|
|-2---2----2--2-(2)---|--2-----2-----2---|
|-2---2----2--2-(2)---|--2-----2-----2---|
|-0---0----0--0-(0)-0-|--0---0-0---0-0---|
|
| E E E E +H            +Q   Q   E E Q
|---------------------|------------------|
|---------------------|------------------|
|-6---6---------------|--------------6---|
|-------6-(6)---------|-(6)--6---6h7-----|
|---------------------|------------------|
|---------------------|------------------|


  D5                                        F#5
        PM      PM       PM       PM                     PM        PM
  Q  Q  E E +E  E    Q   E Q      E   Q      Q     Q     E  E  +E  E
|-----------------|-----------------------|--------------------------|
|-----------------|-----------------------|--------------------------|
|-7--7--7-7-(7)---|--7-----7----------7---|--------------------------|
|-7--7--7-7-(7)---|--7-----7----------7---|-11----11----11-11-(11)---|
|-5--5--5-5-(5)-5-|--5---5-5------5---5---|--9-----9-----9--9--(9)-9-|
|-----------------|-----------------------|--------------------------|
|
| ~
| W                 +H       +E  +E   E E    Q.      Q.         Q
|-----------------|-----------------------|--------------------------|
|-----------------|-----------------------|--------------------------|
|-7---------------|-(7)------(7)-(7)\-7p6-|--7b9-----7----------6----|
|-----------------|-----------------------|--------------------------|
|-----------------|-----------------------|--------------------------|
|-----------------|-----------------------|--------------------------|


  E5                    A5
      PM   PM                   PM     PM      PM    PM
  Q   E Q  E  Q         Q   Q   E E +E E   Q   E Q   E Q
|---------------------|------------------|----------------|
|---------------------|------------------|----------------|
|---------------------|-2---2---2-2-(2)--|-2-----2-----2--|
|-9-----9-----9-------|-2---2---2-2-(2)--|-2-----2-----2--|
|-7---7-7--7--7-------|-0---0---0-0-(0)0-|-0---0-0---0-0--|
|---------------------|------------------|----------------|
|
| ~~                                                   ~
| H.         +E  +E     E E E E E E  E E   E E E E E E Q
|---------------------|------------------|----------------|
|---------------------|------------------|----------------|
|-4----------(4)-(4)\-|-----2-----2------|-2-----2-----2--|
|---------------------|-2h4---2h4----2h4-|---2h4---2h4----|
|---------------------|------------------|----------------|
|---------------------|------------------|----------------|


  E5open                              D5
          PM     PM      PM    PM             PM     PM
  Q   Q   E E +E E   Q   E Q   E Q    Q   Q   E E +E E
|------------------|----------------|------------------|
|------------------|----------------|------------------|
|------------------|----------------|-7---7---7-7-(7)--|
|-2---2---2-2-(2)--|-2-----2-----2--|-7---7---7-7-(7)--|
|-2---2---2-2-(2)--|-2-----2-----2--|-5---5---5-5-(5)5-|
|-0---0---0-0-(0)0-|-0---0-0---0-0--|------------------|
|
|                                ~      PM
| E E E E E E  E E   E E E E E E Q    E E E E E E  E E
|------------------|----------------|------------------|
|-----5-----5------|-5-----5-----5--|------------------|
|-4h6---4h6----4h6-|---4h6---4h6----|-----7-----7------|
|------------------|----------------|-7-9---7h9----7h9-|
|------------------|----------------|------------------|
|------------------|----------------|------------------|


                                  D.S.S. al Dbl. Coda
                   F#5                         E5
      PM    PM                  PM       PM
  Q   E Q   E Q     Q     Q     E  E  +E E     Q  H.
|----------------|---------------------------|-----------||
|----------------|---------------------------|-----------||
|-7-----7-----7--|---------------------------|-----------||
|-7-----7-----7--|-11----11----11-11-(11)----|-9---------||
|-5---5-5---5-5--|--9-----9-----9--9--(9)9---|-7---------||
|----------------|---------------------------|-----------||
|
|             ~
| E E E E E E Q     Q.      Q.         E S S   Q  H.
|----------------|---------------------------|-----------||
|----------------|---------------------------|-----------||
|-7-----7-----7--|--7b9-----7----------6h7p6-|-4---------||
|---7h9---7h9----|---------------------------|-----------||
|----------------|---------------------------|-----------||
|----------------|---------------------------|-----------||


 Chorus
  Q=120
  &&
  A5III               E5open              D5
  Gtrs I, II
  E E E E E E E S S   E E E E E E E S S   E E E E E E E S S
|-------------------|-------------------|-------------------|
|-------------------|-------------------|-------------------|
|-------------------|-------------------|-7-7-7-7-7-7-7-7-7-|
|-7-7-7-7-7-7-7-7-7-|-2-2-2-2-2-2-2-2-2-|-7-7-7-7-7-7-7-7-7-|
|-7-7-7-7-7-7-7-7-7-|-2-2-2-2-2-2-2-2-2-|-5-5-5-5-5-5-5-5-5-|
|-5-5-5-5-5-5-5-5-5-|-0-0-0-0-0-0-0-0-0-|-------------------|


  F#5            E5          A5III               E5open
   E  E  E  S  S E E E S S   E E E E E E E S S   E E E E E E E S S
|--------------------------|-------------------|--------------------|
|--------------------------|-------------------|--------------------|
|--------------------------|-------------------|--------------------|
|-11-11-11-11-11-9-9-9-9-9-|-7-7-7-7-7-7-7-7-7-|-2-2-2-2-2-2-2-2-2--|
|--9--9--9--9--9-7-7-7-7-7-|-7-7-7-7-7-7-7-7-7-|-2-2-2-2-2-2-2-2-2--|
|--------------------------|-5-5-5-5-5-5-5-5-5-|-0-0-0-0-0-0-0-0-0--|


  D5                  F#5            E5
  Gtr I
  E E E E E E E S S    E  E  E  S  S  E  E E S S
|-------------------|----------------------------||
|-------------------|----------------------------||
|-7-7-7-7-7-7-7-7-7-|----------------------------||
|-7-7-7-7-7-7-7-7-7-|-11-11-11-11-11--9--9-9-9-9-||
|-5-5-5-5-5-5-5-5-5-|--9--9--9--9--9--7--7-7-7-7-||
|-------------------|----------------------------||
|
| Gtr II
| E E E E E E E S S    E  E  E  S  S  H
|-------------------|----------------------------||
|-------------------|----------------------------||
|-7-7-7-7-7-7-7-7-7-|----------------------------||
|-7-7-7-7-7-7-7-7-7-|-11-11-11-11-11-------------||
|-5-5-5-5-5-5-5-5-5-|--9--9--9--9--9-/7\---------||
|-------------------|----------------------------||


 Outro
  Q=240
  A5
  Gtr I
            PM      PM      PM    PM
   Q   Q    E E +E  E   Q   E Q   E Q
|---------------------|----------------|
|---------------------|----------------|
|--2---2----2-2-(2)---|-2-----2-----2--|
|--2---2----2-2-(2)---|-2-----2-----2--|
|--0---0----0-0-(0)-0-|-0---0-0---0-0--|
|---------------------|----------------|
|
| Gtr II
|  ~~
|  Q  +E  E E Q     E   Q.    Q.    Q
|---------------------|----------------|
|---------------------|----------------|
|-/4--(4)-4-4-4-----4-|-4-----6-----8--|
|---------------------|----------------|
|---------------------|----------------|
|---------------------|----------------|


  E5open
         PM      PM        PM      PM
  Q  Q   E E +E  E    Q    E Q     E Q
|------------------|----------------------|
|------------------|----------------------|
|------------------|----------------------|
|-2--2---2-2-(2)---|--2------2-------2----|
|-2--2---2-2-(2)---|--2------2-------2----|
|-0--0---0-0-(0)-0-|--0----0-0-----0-0----|
|
| ~
| Q  E E E Q     E   +E  E Q   +Q    E E
|------------------|----------------------|
|------------------|----------------------|
|-9--9-9-9-9-----9-|-(9)-9-9---(9)---9p8--|
|------------------|----------------------|
|------------------|----------------------|
|------------------|----------------------|


  D5                                    F#5
         PM        PM       PM   PM                   PM        PM
  Q  Q   E  E  +E  E    Q   E Q  E Q     Q      Q     E  E  +E  E
|--------------------|----------------|---------------------------|
|--------------------|----------------|---------------------------|
|-7--7---7--7--(7)---|--7-----7----7--|---------------------------|
|-7--7---7--7--(7)---|--7-----7----7--|-11-----11----11-11-(11)---|
|-5--5---5--5--(5)-5-|--5---5-5--5-5--|--9------9-----9--9--(9)-9-|
|--------------------|----------------|---------------------------|
|
| Q  E Q   +Q      E   +Q   E Q  E Q     Q.       Q.         Q
|--------------------|----------------|---------------------------|
|--------------------|----------------|---------------------------|
|-9--9-9---(9)-----9-|-(9)--9-9--9-9--|--9b11-----9----------8----|
|--------------------|----------------|---------------------------|
|--------------------|----------------|---------------------------|
|--------------------|----------------|---------------------------|


  E5                   A5
     PM        PM              PM      PM      PM    PM
  Q  E  Q      E Q      Q  Q   E E +E  E   Q   E Q   E Q
|--------------------|-------------------|----------------|
|--------------------|-------------------|----------------|
|--------------------|--2--2---2-2-(2)---|-2-----2-----2--|
|-9-----9--------9---|--2--2---2-2-(2)---|-2-----2-----2--|
|-7--7--7------7-7---|--0--0---0-0-(0)-0-|-0---0-0---0-0--|
|--------------------|-------------------|----------------|
|
|                       ~~
| Q  E +E  +E  e Q      Q  E E E Q     E   Q.    Q.    Q
|--------------------|-------------------|----------------|
|--------------------|-------------------|-------------7--|
|-6--6-(6)-(6)-6-6\--|-/8--8-8-8-8-----8-|-8-----9--------|
|--------------------|-------------------|----------------|
|--------------------|-------------------|----------------|
|--------------------|-------------------|----------------|


  E5open                                D5
          PM      PM       PM   PM              PM      PM
  Q   Q   E E +E  E    Q   E Q  E Q     Q   Q   E E +E  E
|-------------------|-----------------|-------------------|
|-------------------|-----------------|-------------------|
|-------------------|-----------------|-7---7---7-7-(7)---|
|-2---2---2-2-(2)---|--2-----2----2---|-7---7---7-7-(7)---|
|-2---2---2-2-(2)---|--2-----2----2---|-5---5---5-5-(5)-5-|
|-0---0---0-0-(0)-0-|--0---0-0--0-0---|-------------------|
|
|                                       ~
| Q  +Q   E Q     E   +Q   E Q  E E E   Q  +Q   Q    Q
|-------------------|-----------------|-------------------|
|-9--(9)--9-9-----9-|-(9)--9-9--9-9p7-|-9--(9)--9----9----|
|-------------------|-----------------|-------------------|
|-------------------|-----------------|-------------------|
|-------------------|-----------------|-------------------|
|-------------------|-----------------|-------------------|


                                            H
                       F#5
      PM       PM               PM        PM
  Q   E  Q     E Q      Q   Q   E  E  +E  E
|--------------------|----------------------|
|--------------------|----------------------|
|-7------7-------7---|----------------------|
|-7------7-------7---|-11--11--11-11-(11)---|
|-5---5--5-----5-5---|--9---9---9--9--(9)-9-|
|--------------------|----------------------|
|
|                               ~~
| Q  +Q    +Q    E E    H       H
|--------------------|----------------------|
|-9--(9)---(9)---9p7-|--7-------7-----------|
|--------------------|----------------------|
|--------------------|----------------------|
|--------------------|----------------------|
|--------------------|----------------------|


 .=H
  E5                B5
    Q   Q.   Q.      Q   +Q    H
|-----------------|-----------------*|
|-----------------|-----------------*|
|-----------------|-----------------*|
|---9---9---------|--9---(9)\-------*|
|---7---7---------|--9---(9)\-------*|
|-----------------|--7---(7)\-------*|
|
|       ~~~~~~~~~~~~~~~
|   Q   H.           Q   +Q    H
|-----------------|-----------------*|
|-/11--11---------|-12--(12)\-------*|
|-----------------|-----------------*|
|-----------------|-----------------*|
|-----------------|-----------------*|
|-----------------|-----------------*|


Tablature Legend
----------------
 h   - hammer-on
 p   - pull-off
 b   - bend
 /\  - slide into or out of (from/to "nowhere")
 s   - legato slide
 S   - shift slide
 PM  - palm muting


*****************************************************************************

 Kupio sam Levi's 501
 Sta mi vrijedi kada tebe nema
 Kupio sam Wunderbaum borice
 Al' ne mirisu kao tvoje bice

 Kupio sam gipsane patuljcice
 Sa njima cekam te, Snjeguljice
 Kupio sam lavove od betona
 Na kapiji su, samo za te bona

 Tebe vise na Koridoru nema
 A bila si najfinija
 A bila si najjeftinija

 Kupio sam kazetu od Brenera
 Nije nesto, al je jako jeftina
 Kupio sam dva bureka sa sirom
 Ipak stomak pati za tvojim dodirom

 Tebe vise na Koridoru nema
 A bila si najfinija
 A bila si najjeftinija ..