Razno - Hrvatska - Dragonfly I Dado Topic - Vjerujem U Ljubav

Autor glazbe i teksta:   Dado Topic (2007.)
Transkripcija: ivan3,  a38@net.hr


Intro:
  Hm          G   A   Hm                Em      F#7
 |--------------------------------------------.---.----------|
 |-----.----------------------------pb7r5~-p3p0-5b7-5--/7~~~-|
 |-----7-------------------7-7-------------------------------|
 |-7h9---7-9~~~~-------7h9-----9~~---------------------------|
 |-----------------------------------------------------------|
 |-----------------------------------------------------------|


Hm
Ne, nije bol
G         Asus2
To sto te trebam
Hm                 Em  F#7
Zivim a znam da te ne- mam

You'll never know
How much I love you
You'll never know
How much I need you

Hm  G         A     D
Ako mi pogledas u oci
F#                  Hm
Tu vec dugo skrivam bol
Em   G             D
I onaj stih iz moje pjesme
G                  F#
Ti si k'o na ranu sol


Refren: (2x)
                  Hm
Jer ja vjerujem u ljubav
G                  Asus4
To sto nisi htjela ti
Em           Hm
A ovom srcu tek ostaje da sanja
  G                 F#
I ne dam da se probudi

Solo:
 |------------------------------------------------------------|
 |-------14/15\12~~~----------------10------------------------|
 |-14/16-------------14-14\9~~-7/11----11\9~-\6~~-pb.5r6~~p4~-|
 |------------------------------------------------------------|
 |------------------------------------------------------------|
 |------------------------------------------------------------|

 |--------7h10--12~~p10~-----17-21-b22------------------------|
 |-5/7h10----------------/19-----------\14---------.----------|
 |-----------------------------------------14------6-6b.5-4~--|
 |--------------------------------------------16~~------------|
 |------------------------------------------------------------|
 |------------------------------------------------------------|

You'll never know ...

Ako mi pogledas u srce
Tu zauvijek zivis ti
Za mene svijet bez tebe
Kao da ne postoji

Refren: (x2)
Jer ja vjerujem u ljubav
Bas onako kao ti
A ovom srcu tek ostaje da sanja
I ne dam da se probudi

2.put:
  Em                G   A
I ne dam da se probudi

Ne, nije bol ...

You'll never know ...

Hm
Ne, nije bol.