Razno - Hrvatska - Nebo - Grad

Transkripcija: Ivica - Yam@rock.com


uvod :
   D                G
E--2--2--3--2--0----3--3--3--3--
H--3--3--3--3--3----3--3--2--3--
G--2--2--2--2--2----0--0--0--0--      2X
D-------------------0--0--0--0--
A-------------------------------
E-------------------------------

D                        G               D                   G
Rastao sam bijesan ispod olovnoga neba, drhtao od zime usred sunca koje vreba,
Hm       G           D               Hm       G              D        A
hodao po polju punom zlatnih valova, razbijao vrijeme svojim dugim stopama.

   D                G
E--2--2--3--2--0----3--3--3--3--
H--3--3--3--3--3----3--3--2--3--
G--2--2--2--2--2----0--0--0--0--
D-------------------0--0--0--0--
A-------------------------------
E-------------------------------

 D                   G                D                  G
I vrti vrti vrtio se danima bez mira, spavao po ulazima, hrpama papira,
Hm          G       D               Hm        G          D        A
i nudio se andjelima hladnih usana, i zivio za tebe ali s tobom nikada.

     D           G                     D            G
Kada odem, kada odem kad me nema, samo vjetar, moje lice tada treba,
          Hm        G         D                   Hm            G          D
i sve dok usnama ti ime pisem...nema beda, a kada zadnjim dahom tebe disem...
       A
dovidjenja.


guitar solo : **
      D                              G
E-----------------------------------------------------------------------
H-------7----------------7-------------7---------------7------10--------
G-----9---9--7-9-7-----9---9--7-7----9---9--7-9-7----9---9--7-----------
D-----------------------------------------------------------------------
A-----------------------------------------------------------------------
E-----------------------------------------------------------------------
      D                              G
E-----------------------------------------------------------------------
H-------7----------------7-------------7---------------7------10--------
G-----9---9--7-9-7-----9---9--7-7----9---9--7-9-7----9---9--7-----------
D-----------------------------------------------------------------------
A-----------------------------------------------------------------------
E-----------------------------------------------------------------------

Hm          G       D               Hm        G          D        A
i nudio se andjelima hladnih usana, i zivio za tebe ali s tobom nikada.

     D           G                     D            G
Kada odem, kada odem kad me nema, samo vjetar, moje lice tada treba,
          Hm        G         D                   Hm            G          D
i sve dok usnama ti ime pisem...nema beda, a kada zadnjim dahom tebe disem...
       A
dovidjenja.