Razno - Hrvatska - Pun Kufer - Nije Pametno Ali Moram

Transkripcija: Dado


uvod:
Hm A D G A

Uvodni dio na orguljama:
E-----------------------------------
H-----------------------------------
G-----------------------------------
D-------------5-4---4---------------
A-9-7-5-4-5-5-----5---5---7---------
E--7--------------------7-----------

Hm   A       D              G
Rekli su mi da ne drkam na tebe,
      A
ali moram...
Hm      A     D               G
I svaki bozji dan ja drkam na tebe,
     A
jer moram...
Hm     A      D              G
Koliko jos cu ja drkat na tebe,
        A
jer ja moram...
Hm    A   D                G
Volio bi da ne drkam na tebe,
        A
ali moram,ali moram...

solo gitara:
E/-------------------------------------------
H/-------------------------------------------
G/-------------------------------------------
D/---------------4h5p4-4-----4---------------
A/---9---7-5-4-5---------5-7---7-------------
E/-7---7-------------------------------------

END