Razno - Slovenija - Oko - Kad Si Blizu

Transkripcija: LongLiveRNR


SOLO  (pratnja = uvodni riff,  C#m  H  A )
E---------------------------------------------------------
H---------12----------------------------------------------
G-----11B---11R---11h12p11p9-11p9-----------9-------------
D------------------------------------------11-9-11---11---
A---------------------------------------------------------
E---------------------------------------------------------

E-------12/14-14/12-12/9-9/5--9--7--5---------------------
H-------12/14-14/12-12/9-9/5--9--7--5---------------------
G---------------------------------------------------------
D---------------------------------------------------------
A---------------------------------------------------------
E---------------------------------------------------------

E---------------------------------------------------------
H---------------------------------------------------------
G----------------------9-------11-12-13-12-12p11p9--------
D------11p9-------11---11-9-------------------------------
A------------11-9-----------------------------------------
E---------------------------------------------------------

E--------------------------------------11b-
H-----------------12B---12R-9-12-9---------
G------------------------------------------
D---------11--9----------------------------
A------------------------------------------
E------------------------------------------

E-------15BR-----14h15p14p12-14---12/14-12/14-
H---------------------------------------------
G---------------------------------------------
D---------------------------------------------
A---------------------------------------------
E---------------------------------------------

E---------------------------------------------
H-----0--5------------------------------------
G----------6p4--4-----------------------------
D---------------6--6-4/2----------------------
A---------------------------------------------
E---------------------------------------------

B - bend za citav ton
b - bend za pola tona
R - release
h - hammer on
p - pull off