Razno - Srbija - Laurusi - Bez Tebe

Transkripcija: TARIK (tarik_bruncevic@yahoo.com)


* ovo je prva pesma koju sam skinuo po sluhu,stvarno sam se potrudio.
* odabrao sam ovu pesmu zato sto je nema u arhivi,a i zato sto je
* ona pesma kojom se je proslavio novopazarski bend laurusi.laurusi
* su sa ovom pesmom pobedili na zajacarskom festivalu. uzivajte


uvod Am Em  uvod je sa tercom


gitara 1
e---8---7---5---5--7--8-10---/13-12-8----------------------------
h----------------------------------------------------------------
g----------------------------------------------------------------
d----------------------------------------------------------------
a----------------------------------------------------------------
e----------------------------------------------------------------
gitara 2                                   Am
e---12--10--8---8-10-12-13---/17-15-12-----0------------------0----
h----------------------------------------------1--------1----------
g--------------------------------------------2--------------2------
d------------------------------------------------2--------2--------
a----------------------------------------------------0-------------
e------------------------------------------------------------------

Am
odlazis,u snegu osta trag
         E  lick1        Am
nestajes sada,tuda bez mene
      lick 2
odlazis,ja po svemu vidim sad
           E   lick1
doci mi neces
          Am
nikada vise

e-----------------------
h-----------------------
g-----------------------
d------------9-10-12----
a--/12-10-12------------
e-----------------------

C
dok nestajes ti
            Am                 G
zvoni stari sat za nas zadnji put
C
tiho nestajes ti,
             Am                G
svaki korak tvoj vodi drugom znam

Dm
ja i dalje samo stojim
Am
nemocan da nekud krenem
Dm                        E
cak i ime da ti sapnjem sad

Dm
jedino sto zbunjem brojim
Am
svaki korak sto te nosi
Dm                         E
dalje dalje nekom drugom znam


lick 1
e--12/7--------
h-------------
g-------------
d-------------
a-------------
e-------------


lick 2   sa tercom(dve gitare)
e-------------
h-/12-/13-/10-
g-------------
d-------------
a-------------
e-------------