Razno - Srbija - Via Talas - Sama

Transkripcija: nikola - np39918@fer.hr

Via talas - Sama (1981.)

"intro"   C#   F#


 C#
  Iako osecam te, dok dan se budi
 F#
  dok pljuste ptice i dok zvona zvone
 C#
  zbog tebe ne znam ni dal postoje ljudi
 F#
  i sve sto volim da li s tobom tone,
 D#m     F#         #C
      o,  o, osecam to

 C#
  Uzalud dozivam nebo da mi kaze
 F#
  da sve je stvarno i da tako mora
 C#
  plasim se da sama nikad necu znati
 F#
  da zivim zivot nekog drugog stvora
 D#m     F#         #C
      o,  o, osecam to

  Bm        F#       D#m       G#
  ruzni sni,kao psi, prate me jer shvatam da sam
  C#             G#m              F#             C#
  sama,necu moci sama,neka vreme pocne vec da te uzima
  C#             G#m              F#             C#
  Rudi, ne diraj mi grudi, moje telo pripada drugim ljudima


   C#                    F#
E---------------------------------------------|
B---7p6-----6-----------------------4---------|
G-------6-8---6------------3h6-6-3-6----6-----|
D---------------------------------------------|
A---------------------------------------------|
E---------------------------------------------|
   C#                    F#
E---------------------------------------------|
B---7p6-----6---------------------------------|
G-------6-8---6------------4-3---4-3----------|
D------------------------------4-----4--------|
A---------------------------------------------|
E---------------------------------------------|
  D#m   F#           C#
E---------------------------------------------|
B---7---6-------------------------------------|
G---------8-6---6h8-6-------------------------|
D-------------8-------------------------------|
A---------------------------------------------|
E---------------------------------------------|

  Bm        F#       D#m
  ruzni sni,kao psi, prate me jer shvatam da sam
  C#               G#m            F#              C#
  sama,ostala sam sama,neka vreme pocne vec da te uzima
  C#              G#m               F#             C#
  Rudi, ne diraj mi grudi, moje telo pripada drugim ljudima


Via Talas:  Mira Mijatovic - vokal
            Bojan Pecar - bas
            Dusan Gerzic Gera - saksofon i bubanj
            Misko Plavi - gitara
            Borjana Bulajic ?

Via talas je djelovao pocetkom 80ih, objavili su par singlova i LP
"Perfektan dan za banana ribe". Razilaze se 1983. nakon cega
Bojan Pecar pocinje svirati u EKV-u.


nikola
np39918@fer.hr