Aerodrom - 24 Sata

Album        : Dukat i pribadace
Transkripcija: Mladen Zimonja (zimonja49@zonnet.nl)
               ivan3


Intro: F Am C

F          Am           C
Priznajem, grijesio sam bas kao i svi
F           Am           C
Znam da sam prepun mana, ali vjeruj mi
     Dm     Am
Moja ljubav oduvijek je bila
Bb      Bbm         C
Cista i tebe dostojna.

Zbog nje sam bio spreman se pokoriti
I protiv razuma se svoga boriti
I napustit svoje staro drustvo
Tebi je bilo svejedno.

Ref:
F        Am       Bb   C
Ti nikad nisi saznala
F         Am         Bb C
Koliko mi je do tebe stalo
Dm               Am
Dvadeset i cetri sata dnevno
Bb         Bbm        C
S tobom je bilo premalo

Solo: F Am C 2x Dm Am Bb Bbm C

Ti uvijek imas pravo se potuziti
Mozda su ti drugi mogli vise pruziti
Ali, vjeruj, kunem ti se
Nikad nisam za cijenu pitao.

Koliko sam puta te na kisi cekao
Kasnila si sate, nisam nista rekao
Za tebe sam htio sve na svijetu
Tebi je bilo svejedno.

Ti nikad nisi saznala
Koliko mi je do tebe stalo
Dvadeset i cetri sata dnevno
S tobom je bilo premalo.


UVOD:
  F              Am/E             C7                      
-------------------------------|-----------------------------|
---------10-------------10-----|-----------8----8h10h8-------|
-------------10-------------9--|--------9--------------9-----|
-----10-------------10---------|-----8--------------------10-|
--8--------------7-------------|-----------------------------|
-------------------------------|--8--------------------------|

-------------------------------|-----------------------------|
---------10-------------10-----|-----------8----8h10-8h10-8--|
-------------10-------------9--|--------9-------9----9-------|
-----10-------------10---------|-----8-----------------------|
--8--------------7-------------|-----------------------------|
-------------------------------|--8--------------------------|

-------------------------------|-----------------------------|
---------10-------------10-----|-----------8----------8------|
-------------10-------------9--|--------9----------9------9--|
-----10-------------10---------|-----8----------8------------|
--8--------------7-------------|-----------------------------|
-------------------------------|--8--------------------------|

-------------------------------|-----------------------------|
---------10-------------10-----|-----------8-----------------|
-------------10-------------9--|--------9--------------------|
-----10-------------10---------|-----8-----------------------|
--8--------------7-------------|-----------------------------|
-------------------------------|--8--------------------------|