Aerodrom - Bistra Voda

Transkripcija: ivan3, a38@net.hr



Intro: |D  |G  | x6
       |D  |     x2
       |D  |G  | x2
       |A  |

Riff 1:
     Em/F#  Em    Em/D       Em/C#  Em
    |-----------------|------------------|   akusticna gitara prebire
    |-----------------|------------------|   za to vrijeme u ovom stilu:
    |-----------------|------------------|  H|-----3-----3-----3-
    |-4-----2-----0---|-------------2----|  G|---0-----0-----0---
    |-----------------|-------4----------|  D|(4)---(2)---(0)---- itd.
    |-----------------|------------------|

    D            A
    Da pospremim u srcu lom
    G            D
    Mrka planina dala mi dom.

    (D)         A
    Jezera sva, ne znam im broj
      G                 D             A
    U nijednom odraz ja ne vidim svoj

Refren:
    D                   G
    Bistra vodo, tko te je zamutio
         riff1     D
    Neka zna da me je naljutio
                      G
    Bistra vodo, niko ne vidi ti kraj
          riff1     D
    Primi me, primi u svoj zagrljaj.

    (D)           A
    Leptir na moj spusta se dlan
    G                D              A
    Tko od nas dvoje sanja taj san?

     Refren

Solo:
    |G  |D  |x2

Riff 2: x2
     G
    |-----------------|------------------|   akusticna gitara prebire
    |-----------------|------------------|   za to vrijeme u stilu:
    |-----------------|------------------|  H|-----3-----3-----3-
    |-0---------------|------------------|  G|---0-----0-----0---
    |-------4----2----|------0-----------|  D|(0)---------------- itd.
    |-----------------|-----------3----2-|  A|------(4)---(2)----


    |D  |G  |x2
    |A  | riff1

    Jezera sva...

    Refren

    riff 1
    Bistra vodo! x3


Em riff je ustvari najbolje svirati kao Em pa Em7 020000. Samo se svira
bas melodija preko toga. A moze i Em9 Em Em7 Em6 Em.