Aerodrom - Nebo Ce Uz Tebe Stati

Transkripcija: ivan3 - a38@net.hr
Poslano      : 18.12.2004.


Intro:

/Cijeli bend:/ (2x)
|:C  G  |C  G  |D#    |F    :|

/Klavijature riff:/ (2x)
|:G     |F     |C     |G    :|

/Ukljucuje se glavni riff:/ (2 x 8 taktova)

  G                       F
E|-----------------------|----3-------3--3-------|
B|-----------------------|----3-------3--3-------|
G|o----------------------|----0-------0--0-------|
D|o----------------------|--------x--------------|
A|-----------------------|-----------------------|
E|--1--3----3----1--3----|-----------------------|

  C                       G
E|-----------------------|-----------------------|
B|-----------------------|-----------------------|
G|-----------------------|-----------------------|
D|-----------------------|----3---3--2--0--------|
A|-----------------------|-----------------3--0--|
E|--1--3----3----1--3----|-----------------------|

                          F
E|-----------------------|----3-------3--3-------|
B|-----------------------|----3-------3--3-------|
G|-----------------------|----0-------0--0-------|
D|-----------------------|--------x--------------|
A|-----------------------|-----------------------|
E|--1--3----3----1--3----|-----------------------|

  C                       G
E|-----------------------|------------------------|
B|-----------------------|------------------------|
G|-----------------------|-----------------------o|
D|-----------------------|---2--3--2--3--2--0----o|
A|-----------------------|---------------------1--|
E|--1--3----3----1--3----|------------------------|


/Solo klavijature/    (2 x 4 takta)

G           F
Skoro da je tako
C         G
Otkako se rodis
Uvijek ne`ko provocira
Zivot koji vodis

Bolje da te mrze
Nego da te zale
Vise vjeruj kada pljuju
Nego kada hvale
F   C     G
Nego kada hvale


 Refren:
C     G      C    G
Korak nek ti bude cvrst
D#         F
Nebo ce uz tebe stati
I pokazi srednji prst
Losem glasu sto te prati


/Solo klavijature/ (2 x 4 takta)


Ulica te zove
Ulica te uci
Da za ono sto ti treba
Morat ces se tuci

Pogledaj svog brata
Samog sebe trazi
Uspavan u svijetu koji
Fura se na lazi
Fura se na lazi

 Refren


/Glavni riff/      (1 x 8 taktova)

/Klavijature solo/ (8 x 4 takta)

/Glavni riff/      (1 x 8 taktova)

/Cijeli bend/      (2 x 4 takta)


Ulica te zove...

 Refren

/Gitara riff/      (2 x 8 taktova) + G - zadnji takt.


---------------------------------------------------------

Cijelo vrijeme se svira |G |F |C |G | osim u intru i refrenu.
Have fun!