Aerodrom - Obicna Ljubavna Pjesma

Album        : Obicne ljubavne pjesme (1982.)
Transkripcija: ivan3, a38@net.hr



Intro - Na lijepom plavom Dunavu

Riffovi u verse se sviraju sa heavy palm mute, ovo bi bio neki osnovni uzorak
radi orijentacije, bitna je ritam s naglasenim i nenaglasenim notama.

A riff:
  A5              A5+(no3)          A6(no3no5)      A5+(no3)
|---------------------------------|---------------------------------|
|---------------------------------|---------------------------------|
|---------------------------------|---------------------------------|
|-2-2-2-2-2-2-2-2-3-3-3-3-3-3-3-3-|-4-4-4-4-4-4-4-4-3-3-3-3-3-3-3-3-|
|-0---------------0---------------|-0---------------0---------------|
|---------------------------------|---------------------------------|

D riff:
  D5              D5+(no3)          D6(no3no5)      D5+(no3)
|---------------------------------|---------------------------------|
|---------------------------------|---------------------------------|
|-2-2-2-2-2-2-2-2-3-3-3-3-3-3-3-3-|-4-4-4-4-4-4-4-4-3-3-3-3-3-3-3-3-|
|-0---------------0-------------0-|-0---------------0---------------|
|---------------------------------|---------------------------------|
|---------------------------------|---------------------------------|


A riff
Ako zelis si, zamisli da pjevam ti o necem drugom
O necem sto si vec odavno mozda htjela cuti
  D riff
O ljubavi sto traje cijeli zivot, o vjernosti, o braku i o sreci
A riff
Odnosu gdje nikad nista ne pokvari netko treci.

Ja nikad nisam znao pisat ljubavne romane
Jer draze mi je ono sto u dvije-tri rijeci stane
I zato me ne gledaj tako i ne zijevaj
Znam da ti je dosadna, al' ipak sa mnom pjevaj.

Refren:
Am     G        Dm     Em
Obicnu ljubavnu pjesmu
obicnu ljubavnu stvar

|---------------------|
|---------------------|
|-----0-2-------------|
|-0h2-----------------|
|-----------0--0------|
|---------------------|

Sto kraja nema, a ni pocetka
A ja ja ja ja ja jaaaa.
A ja ja ja ja ja jaaaa.

Ja znam da ova pjesma nece nikada promijenit svijet
I isto tako znam da od nje ljudi nece zivjet bolje
Al' mozda ipak nekom bit ce draga
I sigurno zabraniti je nitko nece
Jer u njoj nema nista sto na neku drugu stranu skrece

Odavno vec nestali su nasi ulicni heroji
Sva`ko gleda svoje, sva`ko tjera svoje, svak se boji
Zato me ne gledaj tako i ne zijevaj
Znam da ti je dosadna, al' ipak sa mnom pjevaj.

Refren

Ja nikad nisam znao ...

Refren ...

---------------
Am 577555
G  355433
Dm x5776x
Em x7998x