Alisa - Sanja

Transkripcija: Miroslav Obradovic (micky@EUnet.yu)


Uvod (ova tema se ponavlja cetiri puta):
   Am              Dm            F          E
E=---------------8-10--8-7-------10-8-7-----7--------|
H=-10----10---10------------10-----------10------7-9-|
G=-----9----9----------------------------------9-----|
D=---------------------------------------------------|
A=---------------------------------------------------|
E=---------------------------------------------------|

Am 
Nemoj Sanja da se menjas, da se stidis lazi,
                                             Dm
najlepsa si kakva jesi, ne dozvoli da te iko kvari,
                    F     E
najgori su Boziji cuvari, ne, ne, ne, ne.

Necu Sanja da ti pricam one stare pesme,
zajedno smo goreli, u istoj peci se pekli,
ko dim razlili meki, ne, ne, ne, ne.

    C 
    Dunavom brodovi plove,
    G                       Am     Am Dm   Am C   E
    da li se bar jedan zove Sanja, Sa-nja, Sa-nja-a,
      C
    maslacak sam, vetar me nosi,
    G                     Am     Am Dm   Am C  E
    ima me u tvojoj kosi, Sanja, Sa-nja, Sa-nj-a.

Nemoj Sanja da se brines, nisam onaj stari,
koji hoce sve da kvari, ciju kicmu drze ideali,
koji mrzi osecaje plitke i nikad ne gubi bitke.

Obuci se kako umes i isturi grudi,
neka tvoja gola noga krene, nek polude ljudi,
nek se zudnja vojnika probudi, ne, ne, ne, ne.

Refren

Solo (prvo se dva puta ponovi tema iz uvoda, a onda se odsvira sledece):
   C                        G                        Am
E=------------------------|------------------------|-----------------------------|
H=------------------------|------------------------|-----------------------------|
G=-9---7-9---9-9--9-10--9-|-7------7---7-7--7-9--7-|-----------------------7-----|
D=------------------------|-----10-----------------|-10---9-10---10-10--10----10-|
A=------------------------|------------------------|-----------------------------|
E=------------------------|------------------------|-----------------------------|

   G                        C                        G
E=------------------------|------------------------|------------------------|
H=-------------8-8-10-8---|------------------------|------------------------|
G=-7----------------------|-9---7-9---9-9--9-10--9-|-7------7---7-7--7-9--7-|
D=-----9------------------|------------------------|-----10-----------------|
A=-------10---------------|------------------------|------------------------|
E=------------------------|------------------------|------------------------|

   Am                            G                      Am
E=-----------------------------|----------------------------|
H=--------------------------9--|----------------------------|
G=-----------------------7-----|-7--------------------------|
D=-10---9-10---10-10--10-------|-----9-------------7-9--7---|
A=-----------------------------|-------10----10-10----------|
E=-----------------------------|----------------------------|

Nemoj Sanja da se brines, nisam onaj stari,
koji hoce sve da kvari, ciju kicmu drze ideali,
koji mrzi osecaje plitke i nikad ne gubi bitke.

Obuci se ckako umes i isturi grudi,
neka tvoja gola noga krene, nek polude ljudi,
nek se zudnja vojnika probudi, ne, ne, ne, ne.

Refren