Alogia - Samson

Album        : Price o vremenu
Transkripcija: Djolle


Uvod i prelaz:
E-------------------------------------b11~---------   |s
B--------------------------------------------------   |v
G-------------------------------------------------- 3X|e
D--------------------------------------------------   |
A--6-6-6-6-6-7-7-7-9-9-9-7-7-7-6-6-6---------------   |o
E--4-4---4-4---4-4---4-4---4-4---4-4---------------   |v
                                                      |o
E--------------------------------------------------   |
B--------------------------------------------------   |2
G--4---6-------------------------------------------   |p
D--4---6----------------6--------------------------   |u
A--2---4---------6-4----6--------------------------   |t
E----------2-4-6----7-6-4--------------------------   |a

G#5                  H5
Koliko puta zelis reci da je kraj
C#5                  E5              D#7
Da vise ne mozes da slusas sta ti govore.
G#5                       H5
Zivot je kratak, vreme brzo prolazi
C#5                 E5          D#7
Uzvrati udarce, jer kasno je za kajanje.

prelaz

Duga kosa uvek im je smetala
Tvoj simbol zivota njima je iluzija
Vekovi ce proci al' ce jedno ostati
Ratnici smo bili - bili i ostali!

    H5         F#5              C#5
Kao Samson, sa macem u ruci bori se!
G#5        F#5
Ukroti lavove!
Kao Samson, sa snagom u kosi bori se!
Na zivot i smrt!

sad neka zajebana solaza
pa mala solaza
ref
solo outro
end.