Alogia - Secanje Na Slike Iz Sna

Transkripcija: Djolle
Album        : Price o vremenu

Intro:
E5 F#5 G#5 4x
Part (Z) G#5 F#5 E5 C# E5


G#5		   F#5
Neonske noci, neki prazni pogledi
E5
cudne misli sakrivam,
	C#5		    F#5
grad je hladan kada ostanes sam.
	  G#5				F#5
Kratak je dah, jos veci je strah sto se budi
		 E5
sve nestaje, sve postalo je
C#5	       F#5	H5 F#5 C#5 H5	
hladno kao ova noc.

X			X    
Secanje na slike iz sna uuuu devedesete
X		       C#5 A5H5
hladan znoj me obliva, budim se.

Prolazi vek, mislim da vreme svemu sudi
budan sanjam nocima,
palim svece da oteram mrak.
Poslednji krug
ulice zvone od koraka
Cujem zvuke bubnjeva
brzi ritam godina iza nas.

Secanje na slike iz sna uuuu devedesete
hladan znoj me obliva, budim se.

Refren (X)
d-6-6-------------------
a-4-4--7-7--4-4-4-4-4-6-
e------5-5--2-0-2-0-2-4-

Part (Y)
(H5 C#5 3x H5 F#5 C#5 H5) x2

Redosled:
Intro
Strofa 1
Ref
Strofa 2
Ref
Part Y
Part Z 2x (solo)
Ref 2x

***VERZIJA 2***
Transkripcija: Dusan Stojanovic 


Originalni stim spusten za polustepen.

Intro:
E5 G5 A5  
	D|---2---0---------------------
	A|-----3-----3---0-3-2---3--3--	x3
	E|-5-------5---5-------5---5---

E5 G5 A5   A5   A5   (x x x x x x x)

Intro solo:
    A5 	    	C5 H5 G5                C5 H5	 F5      
E|--7b8-----------------8-7b8r8b8r7------7------
H|----------------------------------8----8------
G|------------------------------------7--7------

   F5	        E5	   D5	       E5	   G5
E|-5h7-8----7h8-10----8h10-12----10h12-13----12h13-15----
H|-------------------------------------------------------
G|-------------------------------------------------------

Intro solo 2
E|-------------------------------------13-15-17-19-19b20--
H|-------12-13-------13-15----13-15-17--------------------
G|-12-14-------14-16-------16-----------------------------


A5		 C5 H5 G5			C5 H5 
Neonske noci,	 neki prazni pogledi
F5			E5
cudne misli sakrivam,
	  D5		  E5		G5     intro solo 2 (na klav.)
grad je hladan kada ostanes sam 
    A5		 	    C5 H5 
Kratak je dah, jos veci je strah sto se 
G5			C5 H5
budi, sve nestaje,
F5		E5 D5     	  E5	G5
sve postalo je hladno kao ova noc.

C5 G5 D5 C#5

D5 B5	   C5   H5     C5   D5 B5	 C5    H5  C5
Secanje na slike iz sna 	uuuu devedesete
D5 B5	   C5   	H5   C5    D5  B5  C5
hladan znoj me obliva, bu- dim se.


Prolazi vek, mislim da vreme svemu sudi
budan sanjam nocima,
palim svece da oteram mrak.
Poslednji krug,ulice zvone od koraka
Cujem zvuke bubnjeva
brzi ritam godina iza nas.

Secanje na slike iz sna uuuu devedesete
hladan znoj me obliva, budim se.
Solo deonica:

D5 E5 G5	D5 E5 A5	D5 E5 G5	C5 G5 D5 C#5 C5

D5 E5 		   G5				   D5
E|-12-12-10-12-12-10-12-12-10-12-12-10-12-12-12-12--
H|--------------------------------------------------
G|--------------------------------------------------

   E5 		   A5				   D5
E|-12-12-12-12-12-12-12-12-12-12-12------/10-12-12--
H|--------------------------------------------------
G|--------------------------------------------------

   E5 		   G5				   D5
E|-15-15-12-15-15-12-15-12-15-12-15-12--------------
H|-------------------------------------15-12--------
G|-------------------------------------------14-12--
   C5     G5 	D5 C#5 C5
E|--------------------------------------------------
H|--------------------------------------------------
G|-14b16--14b16~~~~~~r14----------------------------

Ponovo intro solo 1 i 2, zatim:

    A5			           C5 H5 G5					 C5 H5
E|--19b20---19b20--19----19?19b20r19-------19-20-20b22--24-22-20-19b20r19-
H|--------------------20--------------------------------------------------
G|------------------------------------------------------------------------

 (mnogo brzo)
          F5		         E5			       D5
E|-----19-20-19---------------19-20-19------------------------------
H|--20----------20-18------20----------20-18-----17-18-20-18-17-----
G|--------------------------------------------------------------19--

		    E5			    G5	C5 G5     D5 C#5
E|------------------------------------------------------------------
H|--18-17-------17-15-------15-13-12-----------/15----15-/17----17--
G|--------19-17-------17-16----------14-12---------12--------15-----


Ponovo refren:

Kraj:

D5  B5  C5	 A5
bu- dim se.

***VERZIJA 3***
Transkripcija: Gvozden Conjic  Kirk_H. konsal@mail.com

Originalni stim: D#-B-F#-C#-G#-D#

 Uvod:
E|------------------------------------------------------------------|
H|------------------------------------------------------------------|
G|------------------------------------------------------------------|
D|-------2---------2---------2---------2--2--2----------------------|
A|-2--5--0---2--5--0---2--5--0---2--5--0--0--0----------------------|
E|-0--3------0--3------0--3------0--3-------------------------------|

 Uvodni solo: I  - pratnja - strofa -A5,G5,F5,E5,D5,E5,G5...

E|-7b8--8--7b8r8b8r7------7---5-7-8---7-8-10---8-10-12---10-12-13---12-13-15--|
H|-------------------8----8---------------------------------------------------|
G|---------------------7------------------------------------------------------|
D|----------------------------------------------------------------------------|
A|----------------------------------------------------------------------------|
E|----------------------------------------------------------------------------|

 Uvodni solo: II - pratnja - G5
E|--------------------------------------13-15-17-19-20------|
H|--------12h13----12h13-15-12-13-15-17---------------------|
G|--12-14-------14------------------------------------------|
D|----------------------------------------------------------|
A|----------------------------------------------------------|
E|----------------------------------------------------------|

 Strofa: neonske noci....

   A5                         G5                        F5   E5     D5     E5     G5
E|---------------------------------------------------------------------------------------|
H|---------------------------------------------------------------------------------------|
G|-----------------------------------------------------------------------2---------------|
D|--2-2-------2---2--------------------------------------------------0-0-0---------------|
A|--0-0-0-0-0-0-0-0-0--3-2-0------5---5---5---5--3-2-0------3-----2------------2---5-5---|
E|----------------------------3-3-3-3-3-3-3-3-3---------1-1-1-0-0-0--------0-0-0---3-3---|

   |Prelaz:        |Refren:

    C5 G5 D5 C#5    D5   B5   C5    H5    
E|------------------------------------------|
H|------------------------------------------|
G|------------------------------------------|
D|---5-----7--7-----7-7--3-3--5-5-5-4-5-----|
A|---3--5--5--4-----5-5--1-1--3-3-3-2-3-----|
E|------3-----------------------------------|


Neonske noci,neki prazni pogledi
cudne misli sakrivam,
grad je hladan kada ostanes sam 
Kratak je dah, jos veci je strah sto se 
budi, sve nestaje,
sve postalo je hladno kao ova noc.

Secanje na slike iz sna  uuu devedesete
hladan znoj me obliva,budim se.

Prolazi vek, mislim da vreme svemu sudi
budan sanjam nocima,
palim svece da oteram mrak.
Poslednji krug,ulice zvone od koraka
Cujem zvuke bubnjeva
brzi ritam godina iza nas.

Secanje na slike iz sna uuuu devedesete
hladan znoj me obliva, budim se.

  Prelaz & pratnja za solo
E|-------------------------------------------------------------------------------|
H|-------------------------------------------------------------------------------|
G|-------------------------------------------------------------------------------|
D|------------------5~-----------------7~-----------------5~--5-----7--6---------|
A|--5-7-3-3-3-3-3-3----5-7-5-5-5-5-5-5----5-7-3-3-3-3-3-3-----3--5--5--4---------|
E|--3-5----------------3-5----------------3-5--------------------3---------------|

 
 Solo: pratnja - strofa
E|12-12-10-12-12-10-12-12-10-12-12-10-12-12-12-12--12-12-12-12-12-12-12-12-12-12-12-/10-12-12|
H|-------------------------------------------------------------------------------------------|
G|-------------------------------------------------------------------------------------------|
D|-------------------------------------------------------------------------------------------|
A|-------------------------------------------------------------------------------------------|
E|-------------------------------------------------------------------------------------------|

E|--15-15-12-15-15-12-15-12-15-12-15-12---------------------------------------|
H|--------------------------------------15-12---------------------------------|
G|--------------------------------------------14-12--14b16--14b16_____r14-----|
D|----------------------------------------------------------------------------|
A|----------------------------------------------------------------------------|
E|----------------------------------------------------------------------------|

E|-7b8--8--7b8r8b8r7------7---5-7-8---7-8-10---8-10-12---10-12-13---12-13-15--|
H|-------------------8----8---------------------------------------------------|
G|---------------------7------------------------------------------------------|
D|----------------------------------------------------------------------------|
A|----------------------------------------------------------------------------|
E|----------------------------------------------------------------------------|

E|--------------------------------------13-15-17-19-20------|
H|--------12h13----12h13-15-12-13-15-17---------------------|
G|--12-14-------14------------------------------------------|
D|----------------------------------------------------------|
A|----------------------------------------------------------|
E|----------------------------------------------------------|

E|--19b20--19b20--19----19b19b20r19-1920-20b22-24-22-20-19b20r19----|
H|-------------------20---------------------------------------------|
G|------------------------------------------------------------------|
D|------------------------------------------------------------------|
A|------------------------------------------------------------------|
E|------------------------------------------------------------------|

E|-----19h20h19-----------19h20h19----------------------------------|
H|--20----------20-18--20----------20-18--17-18-20-18-17----18-17---|
G|-------------------------------------------------------19---------|
D|------------------------------------------------------------------|
A|------------------------------------------------------------------|
E|------------------------------------------------------------------|
                                      slide
E|------------------------------------------------------------------|
H|--------17-15-------15-13-12--------15----15-17----17-------------|
G|--19-17-------17-16----------14-12-----12-------15----------------|
D|------------------------------------------------------------------|
A|------------------------------------------------------------------|
E|------------------------------------------------------------------|