Angels Breath - Crv

Transkripcija: Johnny (johnny47ns@yahoo.com)
Izvodjac     : Angel's Breath (Milan Mladenovic i Mitar Subotic Suba)
Track        : 09


    C5-
E------------
H------------
G---5--5--5--
D---4--4--4--
A--(3)(3)(3)-
E------------

Tema (riff):
   A5      G5 A5    C5     C5-
E-------------------------------------
H-------------------------------------
G----XX-XX------XXX-----X-------------
D--7-XX-XX-5--7-XXX-10b-X--10--10--10-
A--7-XX-XX-5--7-XXX-10b-X---9---9---9--
E--5-------3--5-----8------(8)-(8)-(8)-

...u stvari nista na E zici ne bi trebalo ni svirati,
   samo treba hvatati "petice"


Drugi motiv:
  A5     A5-    A5     C5   A5-
E------------------------------------
H------------------------------------
G-14-----14-----14----/17------------
D-14-----13-----14----/17---13-13-13-
A-12-----12-----12----/15---12-12-12-
E------------------------------------

 A5
  Vi slepi, vi gluvi, vi sebicni ljudi
  Sto pravite buku bez reda i smisla
  Bez zasto i zato, za koga i kako
  Bez pitanja koje bi mozda osusilo
  Ponosni osmeh na licu bez suza
  Na licu sto nikad obraz okrenulo nije

Tema:
  Brazgotina, sanduk i crv
  Obraz i dlaka i krv
  Brazgotina, sanduk i crv
  Obraz i dlaka i krv

Drugi motiv:


Harmonika:
     Gm   A


Tema:

 A5
  Vi lenji igraci svog obrednog plesa
  Vi sretni u transu u svetu sto postoji
  Samo u glavama ljudi bez skrupula
  Ljudi bez milosti, ljudi bez secanja
  Vi, sto ne znate pljuskove zvuka, boje i mirisa
  Vi ljudi bez pameti


Tema:
  Brazgotina, sanduk i crv
  Obraz i dlaka i krv
  Brazgotina, sanduk i crv
  Obraz i dlaka i krv
  Vi ljudi bez pameti

  Brazgotina, sanduk i crv
  Obraz i dlaka i krv
  Brazgotina, sanduk i crv
  Obraz i dlaka i krv
  Vi ljudi bez milosti

Drugi motiv: