Angels Breath - Metak

Transkripcija: Johnny (johnny47ns@yahoo.com)
Izvodjac     : Angel's Breath (Milan Mladenovic i Mitar Subotic Suba)
Track        : 03


Tema1 (riff):
   A5   F#5  (x3)             A5F#5 A5 C5
E-----------------------------------------
H-----------------------------------------
G-----------------------------------------
D--7-7--444-7-7--444-7-7--444-7-444-77-10-
A--7-7--444-7-7--444-7-7--444-7-444-77-10-
E--5-5--222-5-5--222-5-5--222-5-222-55-8--


Tema1 (riff):
      A5 F#5 A5 G5  A5  H5 (x2)
E-------------------------
H-------------------------
G--9\---------------------
D--9\-7--444-7--444-777-9-
A-----7--444-7--444-777-9-
E-----5--222-5--333-555-7-

Em            Hm                 A
Grad je pojeo srca, grad je popio krv
Em             Hm           A
Svi ovi garavi zalasci sunca koji mi prave rupu u grudima

Em            Hm                    A
Grad je pojeo ljude, grad se siri u krug
       Em                 Hm                 A
I samo klizi klizi klizi, klizi klizi klizi, raste niz ulice

A5                        H5
Ovaj put bi mogao trajati vecno
C5                D5
Gledati, upijati, graditi, razbijati
Am                        H                 
Ovaj put bi mogao trajati vecno
C                   D
Jahati sa sudbinom, jahati sa sudbinom

< tema2 >
Metak me nece, metak mene nece

Ja sam dete planete, ja se osecam velikim
Dok spavam ovde pod mostom, dok jedem djubre sa kontejnera
Ja sam gradjanin sveta, ja kupujem zaborav
Brzo brzo brzo, brzo brzo brzo, u grotlo svemira

A5                        H5
Ovaj put bi mogao trajati vecno
C5                D5
Gledati, upijati, graditi, razbijati
Am                        H                 
Ovaj put bi mogao trajati vecno
C                   D
Jahati sa sudbinom, jahati sa sudbinom

< tema2 >
Metak me nece, metak mene nece