Animatori - Kasno Je Za Prosinac

Transkripcija: josip_sb



  D                    G            D
1.Dok isli smo u skolu, voljeli smo se
  D                  G     D
  Gledali smo zivot, imali ideje
  D                C            G
  Htjeli smo jednom promijeniti svijet
  D               A             D
  Oprali smo ruke sve naucili za pet.

 (sve su strofe isti akordi ko i u prvoj)

2.Bili smo ko jedan, prenosili smo znanje
  Krcma ''Kod Oroza'', jedino saznanje
  Pozvali smo more da nam otvori oci
  More nam je dalo sedam pijanih noci

     A                          G           D
ref. Jer kasno je za prosinac i kasno je za srpanj
     A                    G          D
     Kasno je za dane sto zivjeli smo sretno
     D                    C       G
     Isti su mi sada svih dvanaest mjeseci
     D                  A             D
     Skoro cemo mladost pricat svojoj djeci

3.Nije tako davno bilo to o cemu prican
  Al mnogi od nas nije vise onom duhu slican
  Jer mjenjaju se ljudi, drukciji smo svi
  Od starih ideja i tocka na i.

ref. Jer kasno je....

 Solo:(violina,preradjeno za gitaru)
 E||-5--5--5-7-5----------------------5--5--5-7-5------------------|
 B||-------------7----5-7-8--8-8-7-5--------------7----5-8--8-7-5--|
 G||----------------7--------------------------------7------------7|
 D||---------------------------------------------------------------|
 A||---------------------------------------------------------------|
 E||---------------------------------------------------------------|

 E||-5--5--5-7-5-----5-7-8--8-7-----5-7--5--5-7-5------------------||
 A||-------------7-8-------------8----------------7----5-7-8--8-7--||
 G||-------------------------------------------------7------------7||
 D||---------------------------------------------------------------||
 A||---------------------------------------------------------------||
 E||---------------------------------------------------------------||

4.Ne bi bilo dobro da pokusamo opet
  Gimnazijske stvari iznova zapocet
  Jer drugi su ljudi, interesi drugi
  svako trazi svoje, svatko svoje nudi.

5.Mozemo se napit opet ispocetka
  I praviti tulume i ljubit se ko djeca
  Izmedju nas stalno gradi se zid
  Izgubit cemo sluh, izgubit cemo vid

ref. Jer kasno je...2X
    D                  A             D       D A D
    Skoro cemo mladost pricat svojoj djeci...