Atheist Rap - Atheist Rap 2

Transkripcija: Milan Pavlovic (paparaco@EUnet.yu)
Home         : http://www.yutabs.f2s.com

Napomena: u pesmi se koriste riffovi a ne akordi
  G -35XXXX
  D -X57XXX
  Em-X79XXX
  C -X35XXX
  D*-25XXXX

G
Vise nista nije isto
      D       
Nikad nece biti kao sto je bilo ranije
Em
Ostaje nam samo borba
C
Borba i secanje
   G
Na neko srecnije vreme
         D*
Kada smo zajedno bili svi
       C           
Koje nijedna slika, nijedna pesma
D
Ne mogu vratiti

  Solo :
  Em               Em          C    C                C
E|----------------|----------------|----------------|----------------|
H|----------------|----------------|----------------|----------------|
G|----------------|----------------|----------------|----------------|
D|9---7---9-------|9---9-------5---|--------5-------|5-------5-------|
A|7---5---7-------|7---7-------3---|--------3-------|3-------3-------|
E|----------------|----------------|----------------|----------------|
  G                G           D    D                D   
E|----------------|----------------|----------------|----------------|
H|--------8-------|8---8---8---/7--|--------7---7---|7---7---7---7---|
G|----------------|----------------|----------------|----------------|
D|/5--------------|------------7---|--------7---7---|7---7---7---7---|
A|5-------5-------|5---5---5---5---|--------5---5---|5---5---5---5---|
E|3-------3-------|3---3---3-------|----------------|----------------|
 /- - - - - - - - - - - - - - dve gitare - - - - - - - - - - - - - - /
  C                C                C                C                G
E|----------------|----------------|----------------|----------------|----*
H|5---------------|(5)-------------|(5)-------------|----------------|----*
G|----------------|----------------|----------------|----7-/-9-------|7---*
D|5---------------|(5)-------------|(5)-------------|(5)-------------|----*
A|3---------------|(3)-------------|(3)-------------|(3)-------------|5---*
E|----------------|----------------|----------------|----------------|3---*
 /- - - - - - - - - - - - - - dve gitare - - - - - - - - - - - - - - - - -/

G
Vise nista nije isto
      D       
Nikad nece biti kao sto je bilo ranije

  Kraj :
  Em               Em               Em               G     Fis  F     Em
E|----------------|----------------|----------------|----------------|----
H|----------------|----------------|----------------|----------------|----
G|----------------|----------------|----------------|----------------|----
D|9-------9-------|9---9---9---9---|----9---9-------|12----11---10---|9---
A|7-------7-------|7---7---7---7---|----7---7-------|10----9----8----|7---
E|----------------|----------------|----------------|----------------|----

Korisceni akordi:
G -320033
D -XX0232
Em-022000
C -X35553