Atheist Rap - Blue Trabant

Transkripcija: Milan Pavlovic (paparaco@EUnet.yu)
Home         : http://www.yutabs.f2s.com


  Tema :
E|----------------|----------------|----------------|----------------|
H|----------------|----------------|----------------|----------------|
G|----------------|----------------|----------------|----------------|
D|----------------|----------------|2-------2---4---|----4---7---4---|
A|2-------2-----X-|X---2---2---5---|0-------0---2---|----2---5---2---|
E|0-------0-----X-|X---0---0---3---|----------------|----------------|

  Strofa 1, 2 :
E|----------------|----------------|
H|----------------|----------------|
G|----------------|----------------|
D|----------------|----------------|
A|------------4---|--4-4---0---2---|
E|0-------0-------|----------------|

  Refren:
E               H
...Blue trabant - my love
A
Karavan trabant svaciji san...

  Prelaz 1: E, Fis {riffovi}

  Solo :
  E
E|----------------|----------------|----------------|----------------|
H|5p4h5p4-5-------|(5)-------------|(5)-------------|(5)-5-------5---|
G|----------------|----------------|----------------|----------------|
D|----------------|----------------|----------------|----------------|
A|----------------|----------------|----------------|----------------|
E|----------------|----------------|----------------|----------------|
  Fis
E|----------------|----------------|----------------|----------------|
H|5---/---7-------|----------------|----------------|----------------|
G|------------6---|(6)-------------|(6)-------------|(6)-------------|
D|----------------|----------------|----------------|----------------|
A|----------------|----------------|----------------|----------------|
E|----------------|----------------|----------------|----------------|
  E
E|----------------|----------------|1211121112------|(12)------------|
H|5p4h5p4-5-------|(5)-------------|----------------|----5-------5---|
G|----------------|----------------|----------------|----------------|
D|----------------|----------------|----------------|----------------|
A|----------------|----------------|----------------|----------------|
E|----------------|----------------|----------------|----------------|
  Fis
E|----------------|----------------|----------------|----------------|
H|5---/---7-------|---7--------7---|7-\-5---5---4---|-2--------------|
G|------------6---|------------6---|6-\-4---4---3---|-1------4-------|
D|----------------|----------------|----------------|--------4-------|
A|----------------|----------------|----------------|----------------|
E|----------------|----------------|----------------|----------------|

  Strofa 3 :
  E
E|----------------|----------------|----------------|----------------|
H|----------------|----------------|----------------|----------------|
G|----------------|----------------|----------------|----------------|
D|----------------|----------------|----------------|----------------|
A|------------4---|--4-4---0---2---|------------4---|--4-4---0---2---|
E|0-------0-------|----------------|0-------0-------|----------------|
  Fis
E|----------------|----------------|----------------|----------------|
H|----------------|----------------|----------------|----------------|
G|----------------|----------------|----------------|----------------|
D|----------------|----------------|----------------|----------------|
A|------------6---|--6-6---2---4---|------------6---|--6-6---2---4---|
E|2-------2-------|----------------|2-------2-------|----------------|

  Prelaz 2:
   G{riff}
...U velikoj zurbi oko tonske probe
A{riff}
Zaboravismo skroz na groktave grdobe...

  Kraj: G, C, D
   G                   C        D
...Na svu srecu svinje nisu ko Kareli...
   C                  D
...Sad sa tim motorom mi rezemo drva...

  {u drugom delu umesto G C D imas riffove A D E}
   E            Cis H A G A {riffovi}
...Na nasa kola prva...


  Korisceni akordi:
E-022100
H-X24442
A-X02220
G-320033
C-X32010
D-XX0232

Izdali smo plocu, dosli smo do para
Kupili smo kola, boja: serpa plava
Terali smo kola celu noc i dan
Uh, ala je prasio nas Trabant karavan
Jurili smo ulicama nasega grada
Kao da su one mocna autostrada
Ganjala nas murka, al' nas nije stigla
Jer kolica nasa prasincinu su digla
Sve su cure tada sizile za nama
Neke smo i vozili do Flying Dutchmana
To je bilo vreme, to je bila frka
Niko tada s nama nije smeo da se trka
Curice jos pamte, secaju se sata
Na zadnjem sedistu naseg Trabanta
A sediste zadnje istorija sveta
Na njemu je bilo i klinki i teta
Na zadnjem sedistu naseg Trabanta

Slikali nas tada i za kalendare
Muzicari ludi u Trabantu sto gluvare
Popularnost Trabanta drasticno je tukla
A prodaja Mercedesa potpuno je pukla
Na turneje mnoge Trabantom smo isli
Puna kola muzicara pivkana i virsli
Limuzina pici, kilometri siste
Curice kraj druma sve u transu vriste

Zvali nas u Turiju u zadruzni dom
Da sviramo malo, da prasimo po svom
Da zastitimo kola od mogucih ataka
Sklonismo ih u dvoriste kod nekog seljaka
Posle dobre svirke i jos bolje cirke
Dodjosmo do kola i svisnusmo od bola
Ocajnog prizora, seljaci nas kinje
Nasega Trabanta pojele su svinje
U velikoj zurbi oko tonske probe
Zaboravismo skroz na groktave grdobe
Ta nepaznja sitna bese vrlo gadna
Izgubismo naseg voljenog Trabanta
Ali
Na svu srecu svinje nisu ko Kareli
Ipak je motor ostao sasvim celi
Sad sa tim motorom mi rezemo drva
al' osta setno secanje na nasa kola prva

Blue Trabant - my love
Karavan Trabant - svaciji san
Blue Trabant - kao serpa plav
Karavan Trabant - plastican sav