Atheist Rap - Fatamorgana

Transkripcija: Nikola Kolarovic (nikolak@bigfoot.com)


Napisacu pesmu u riffovima koliko mogu. Ako ne znas kako se
hvata neki riff (npr. A5) pogledaj dole!


INTRO: 
A5        A5          D5         
   Bila je     Bila je    Bila je
D5      A5
Bila je luda zurka sto bi rekli totalni mrak
D5        A5
Ja sam te noci bio napaljen ko najludji ludak
C#5     D5
Kada je prosla pored mene i namignula okom
E5    D5
Jedan deo moga tela odgovorio je skokom


E5         D5        C#5       H5 A5
Imala je kosu boje meda boje duna-va
Po malo gadna ali nije bila skrna-va

D5
Igrala je stiplcez palila se sva na jazz
D5
Radila ko masina a u dusi bila fina


  E5     H5 E5                E5    H5 E5
E----------------------------------------------------
H----------------------------------------------------
G--9--9-----9--9-9-9-99999----9--9-----9--9-9-9-9-9--
D--9--9---9-9--9-9-9-99999----9--9---9-9--9-9-9-9-9--
A--7--7---9-7--7-7-7-77777----7--7---9-7--7-7-7-7-7--
E---------7--------------------------7---------------
                                         FATAMORGANA!
 Meni ovako bolje zvuci, tako svira druga gitara, a
Radule svira samo:
E-----------------------------------------------------
H-----------------------------------------------------
G-----------------------------------------------------
D--2--2---0-2---2-------------------------------------
A--2--2---0-2---2-------------------------------------
E--0--0-----0---0-------------------------------------



   D5      E5     D5  C5  H5  A5
E-----------------------------------
H-----------------------------------
G--7--7-7--9-9----7-7-5-5-4-4-2-2---
D--7--7-7--9-9----7-7-5-5-4-4-2-2---
A--5--5-5--7-7----5-5-3-3-2-2-0-0---
E-----------------------------------

(isto kao prva strofa)
Ja se takav toga dana ne bih dopao ni mami
Kad sam uhvatio pogled gore navedenoj dami
Nakon pet minuta vec smo plesali u tami
A iduceg trenutka smo bili sasvim sami

A5
Ja sam punjacica najludjih zelja
A5
Ja sam punjacica najludjih zelja
D5
Ja sam punjacica najludjih zelja
D5
Rekla je u maloj sobi levo od ve-ce-ja



PRELAZ:
E---------------------------------
H---------------------------------
G-2---------------------------5-\-
D-2-----------555-4-5-4-------4-\-
A-0---------------------7--5--5-\- X2
E---------------------------------

E------------------------------------------
H--------------------------------------7-\-
G-2-2-------------------------------7--5-\-
D-2-2------7--555-4-5-4---------4h5----4-\-
A-0-0--4h5--------------7--5-5---------5-\- X2
E------------------------------------------

        A5
Ruka je klizila uz nogu sve blize blize blize
        D5
Kad sam osetio iznenada nesto joj se dize
A5
Prijatelji moji da ste videli belaja
        D5
Dal sam preter'o u picu ili riba ima micu


A    D  E
Hej, ho, fatamorgana
Hej, ho, fatamorgana
Hej, ho, fatamorgana, fatamorgana
A    D  E                 
Hej, ho, fatamorgana, fatamorgana

Fill:
E-------------------
H-------------------
G--12-12-9-12---14--
D--12-12-9-12---14--
A--10-10-7-10---12--
E-------------------


 Pomoc:
  A5 H5 C5 C#5 D5 E5 A D E
E--------------------5-5-7-
H--------------------5-7-9-
G-2--4--5---6--7--9--6-7-9-
D-2--4--5---6--7--9--7-7-9-
A-0--2--3---4--5--7--7-5-7-
E--------------------5-----


--------------------------------------------------------------
 Sve ispravke i dopune su dobrodosle! (nikolak@bigfoot.com)