Atheist Rap - Felecita

Transkripcija: Toma 3:16 (toma3-16@wanadoo.fr)


INTRO : (brzo x2)
        ------------------------------------     
        ------------------------------------    
        8-8-8-8-8-8-8-8-8-8-8-8-8-10-10-10--  x3 
        8-8-8-8-8-8-8-8-8-8-8-8-8-10-10-10--      
        6-6-6-6-6-6-6-6-6-6-6-6-6--8--8--8--   
        ------------------------------------  

        ---------------------------------
        ---------------------------------
        8-8-8-8-8-8-8-8-7-7-7-7-7-7-7-7--  x1
        8-8-8-8-8-8-8-8-7-7-7-7-7-7-7-7--
        6-6-6-6-6-6-6-6-5-5-5-5-5-5-5-5--
        ---------------------------------


RIFF    D#
        Felicita-Milano, Torino, Juventus, Lacio 
        C
        Felicita-Napoli, Kaljari, Bolonja, Parma
        F                                    
        Felicita-Sezena, Zenova, Doria, Roma
        A#
        Felicita, Felicita !!!
        D#
        Felicita-Milano, Torino, Juventus, Lacio 
        C
        Felicita-Napoli, Kaljari, Bolonja, Parma
        F                                    
        Felicita-Sezena, Zenova, Doria, Roma
        A#
        Felicita, Felicita !!!

RIFF    D#                           C
        Dzuzepe Meaca Toto Skilaci i Roberto Betega
        F                             A#
        Marko Van Basten, Rud Gulit i ja
        D#                           C
        Dzuzepe Meaca Toto Skilaci i Roberto Betega
        F                             A#
        Marko Van Basten, Rud Gulit i ja...

SOLO :  --------------------------------------------------------------
        --------------------------------------------------------------
        ------------------12-12-12-13-12-10---------------------------
        13-13-13-15-15-15-------------------10-10-10-12-12-12-13-10~--
        --------------------------------------------------------------
        --------------------------------------------------------------


(brzo)  -----------------------------------------------------------------
        ------------------------------------9-9-9-9-9-9-11-9-8-8-6^8^6~--
        10-10-10-10-10-10-12-12-12-12-12-12------------------------------
        -----------------------------------------------------------------
        -----------------------------------------------------------------
        -----------------------------------------------------------------


(brzo)  -----------------------------------------------------------------------
        -----------------------------------------------------------------------
        ------------------------------------------------12-12-12-12-12-12-12-12
        13-13-13-13-13-13-13-13-15-15-15-15-15-15-15-15------------------------
        -----------------------------------------------------------------------
        -----------------------------------------------------------------------

        -----------------------------------------------------------------------
        ------------------------------------------------13-13-13-13-13-13-13-13
        13-13-13-13-13-13-13-13-15-15-15-15-15-15-15-15------------------------
        -----------------------------------------------------------------------
        -----------------------------------------------------------------------
        -----------------------------------------------------------------------

        ------------------------12~--
        15-15-15-15-15-15-15-15------
        -----------------------------
        -----------------------------  
        -----------------------------
        -----------------------------  .....