Atheist Rap - Letnji Hit

Transkripcija: Nikola Kolarovic (nikolak@bigfoot.com)



Fill1: 
E----------
H----------
G-4/6--4/6-
D-4/6--4/6-
A----------
E----------

A     D           C#           fill1
Posle godinu dana napornoga rada 
Neplacena smena odlazi iz grada 
Letovanje placaju u 17 rata 
A   D         C#5       F#5
Ali nema veze odbice od plata 

fill2:
E------------------------0-
H------------------------0-
G-4--44-4/6--7-77-7777---1-
D-4--44-4/6--7-77-7777---2-
A-2--22-2/4--5-55-5555---2-
E------------------------0-

A        D         C#          fill1
Ponecemo kilo mesa preko sindikata 
Tata pice gajbu mama ce da kuva 
Ako nema struje secemo im sume 
A        D    C#5         F#5
Rucacemo kako samo radnik ume 

H5       C#5 D5          (slicno sa fill2)
Nismo gladni nismo zedni 
H5      C#5 D5
Al smo jako zeljni 
H5     C#5 D5
Kuvarice 
E
Daj bombona 

A  E   D fill2
Da sisamo 
Da sisamo 
Da sisamo 

Fill2: 
E----------
H----------
G----------
D----------
A-555-4--2-
E----------

Pratnja za solo:
  F#m  E F#m       A     D
E-------------------------------------------
H-------------------------------------------
G------------------------7-7-7-7------------
D-4-44---4--4-4-4--7-777-7-7-7-7------------
A-4-44---4--4-4-4--7-777-5-5-5-5-------------
E-2-22-0-2--2-2-2--5-555--------------------


     F#5          G5       E5
Iako moja plata i nije bas neka 
Ja sam posteno platio i zato sam srecan 
Jos samo hleba da ima i himna da svira 
  H5           C#5 D5           (slicno sa fill2)
I danas da mogu ja opet bih isto 
I sutra da mogu ja opet bih isto 
E
Daj bombona 

Da sisamo...

--------------------------------------------------------------
 Sve ispravke i dopune su dobrodosle! (nikolak@bigfoot.com)