Atheist Rap - Lopovi I Zace

Transkripcija: Chivija


  Uvod:
E|-8-8--7-8--5-4-5-4-5---4-5--7--7-5-7--7-5-5--4-5-----|
H|-----------------------------------------------------|
G|-----------------------------------------------------|
D|-----------------------------------------------------|
A|-----------------------------------------------------|
E|-----------------------------------------------------|

  Strofa1:
E|------------------------------------------------------------|
H|------------------------------------------------------------|
G|------------------------------------------------------------|
D|-3--3---3--3-----7--7---7--7-----9--9---9--9--7--7---7--7---|
A|-5--5---5--5-----5--5---5--5-----7--7---7--7--5--5---5--5---|
E|------------------------------------------------------------|
Lopovi i zace su napravili pakt..

Strofa2: 
E|---------------------------------------|\
H|---------------------------------------| \
G|---------------------------------------|  \	
D|----------5-5----------------7-7-------|   \
A|-3-3--7-7-----7-7---5-5--8-8-----8-8---|    \
E|---------------------------------------|     \
Od ridjobradog gusara...                        \
E|--------------------------------------------|  \
H|--------------------------------------------|    2x
G|--------------------------------------------|    2x
D|--------------9-9-------------------7-7-----|  /
A|-7-7--10--10-------10-10---5-5--8-8-----8-8-| /
E|--------------------------------------------|/

Prelaz:
E|------------------------|
H|------------------------|
G|------------------------|
D|-10-10--9-9--7-7--9-9---|
A|-8--8---7-7--5-5--7-7---|
E|------------------------|
Svi su vezani...


Refren:
E|------------------------|
H|------------------------|
G|------------------------|
D|-10-10--9-9--7-7--9-9---|
A|-8--8---7-7--5-5--7-7---|
E|------------------------|
Sve se tako vrti u krug...

Reci:
Lopovi i zace su napravili pakt
i tako zauvek zaustavili medjusobni rat
jedni sad strazare dok drugi sibicare
i od naivnoga naroda oduzimaju pare
Od ridjobradog gusara do sudije dreda
od saraga, sve do prvog reda
svi su vezani u ovo vrzino kolo
i nijedan od njih ne nastupa solo,
Svi su vezani...

U filmovima uvek pobedjuju zace
a u stvarnom zivotu lopovi su face,
mnogi u njima prepoznaju idole 
puno picaka i love bez imalo skole
Jer zaca je surov, zaca je sila,
lopov ima mozga i nadasve stila,
lopov nakon svoje igre sledecem
lopovu predaje zacin pedigre

Sve se tako vrti u krug, 
zaca je lopovu najbolji drug,
koriste dobro uigrane cake
dok mi i dalje gramo corave bake.