Atheist Rap - Narodna Pesma

Transkripcija: Toma 3:16 (toma3-16@wanadoo.fr)


INTRO:
-----------------------------
-----------------------------
-----------------3-3-3-8-8-8- x3
-----------------3-3-3-8-8-8-
---3---3---3---3-1-1-1-6-6-6-
-1---1---1---1---------------

---------------------------------
---------------------------------
-5-5-10--10-10--9-10-10-9-10-10--
-5-5-10--10-10--9-10-10-9-10-10--
-3-3-8---8--8---7-8--8--7-8--8---
---------------------------------