Atheist Rap - Piloti

Transkripcija: Milan Pavlovic (paparaco@EUnet.yu)
Home         : http://www.yutabs.f2s.com


  Tema :
  A                E                E                A
E|----------------|----------------|----------------|----------------|
H|----------------|----------------|----------------|----------------|
G|----------------|----------------|----------------|----------------|
D|2-4-2-4-2-4-2-4-|----------------|----------------|2-4-2-4-2-4-2-4-|
A|0-0-0-0-0-0-0-0-|2-4-2-4-2-4-2-4-|2-4-2-4-2-4-2-4-|0-0-0-0-0-0-0-0-|
E|----------------|0-0-0-0-0-0-0-0-|0-0-0-0-0-0-0-0-|----------------|
  A                D                E                A   E   A
E|----------------|----------------|----------------|----------------|
H|----------------|----------------|----------------|----------------|
G|----------------|2-4-2-4-2-4-2-4-|4-------4-------|----------------|
D|2-4-2-4-2-4-2-4-|0-0-0-0-0-0-0-0-|2-------2-------|2-------2-------|
A|0-0-0-0-0-0-0-0-|----------------|----------------|0---2---0-------|
E|----------------|----------------|----------------|----0-----------|

  Solo :
E|----------------|----------------|----------------|----------------|
H|----------------|----------------|----------------|----------------|
G|----------------|----------------|----------------|----------------|
D|----7-7-97--7---|----------------|----------------|----7-7-97--7---|
A|0---------9-----|----7-7-97--7---|----7-7-97--7-0-|(0)-------9---0-|
E|--------------0-|(0)-------9---0-|(0)-------9-----|----------------|

E|----------------|----------------|----------------|----------------|
H|----------------|----------------|----------------|----------------|
G|----------------|----7-7-97--7---|9-9-7-7-6-6-7\--|----------------|
D|----7-7-97--7-0-|(0)-------9-----|9-9-7-7-6-6-7\--|2-------2-------|
A|(0)-------9-----|----------------|----------------|0---2---0-------|
E|----------------|----------------|----------------|----0-----------|


Potomu cto mi piloti
Nebo nas rodilni dom
Pervim delom samoleti
A devuski - potom