Atheist Rap - Sarajevo

Transkripcija: Milan Pavlovic (paparaco@EUnet.yu)
Home         : http://www.yutabs.f2s.com


  Tema:
  D                D                G                A
E|2-------2-------|2-------2-------|/7------7-------|/9------9-------|
H|3-------3-------|3-------3-------|/8------8-------|/10-----10------|
G|2-------2-------|2-------2-------|/7------7-------|/9------9-------|
D|0-------0-------|0-------0-------|----------------|----------------|
A|----------------|----------------|----------------|----------------|
E|----------------|----------------|----------------|----------------|

Strofa: D, G, A

Refren: D, A, Hm, G, A

  Solo:
E|/10-10--/10-10--|/10-10--/10-10--|/7------7-------|/9------7---9---|
H|/10-10--/10-10--|/10-10--/10-10--|/8------8-------|/10-----8---10--|
G|/11-11--/11-11--|/11-11--/11-11--|/7------7-------|/9------7---9---|
D|----------------|----------------|----------------|----------------|
A|----------------|----------------|----------------|----------------|
E|----------------|----------------|----------------|----------------|

  Korisceni akordi:
D -XX0232
G -355433
A -577655
Hm-X24432


Kad opljackam Voban-banku
Odoh ja na Jamajku
Jer tamo zivi Edi Grant
Mator kao Robert Plant
Edi Grant peva rege
uz pomoc naseg gitariste Brege
Edi i Brega nasi su idoli
njihov hit svaki od nas voli

I don't wanna die, die in Sarajevo fight
I want to pobec' otale, jer prezivjet'
Nema sanse, nema sanse

Nas je Brega dezertir'o
pucat' il' pjevat' nije mnogo bir'o
Edi i Brega sad se vocem slade
I uz put pipkaju devojke mlade
Ko to kaze ko to laze
Da nema lepse od lijepe nase
Zato Vobane, cuvaj pare
Spremam se i ja na put preko bare

I don't wanna die, die in Sarajevo fight
Die for the blood-red gang
And listen to bang! bang! bang!
No more bang! no more bang!
No more bang! no more bang!
No more bang! no more bang!