Atheist Rap - Stomak Eliminator

Album        :  Maori i Crni Gonzales
Transkripcija: Snoop (zsnopek@inet.hr)


intro
E||----------------------|----------------------|----------------------|
B||----------------------|----------------------|----------------------|
G||-------4----5----x----|--5----5----4---------|--5----x----5----5----|
D||--5-------------------|----------------------|----------------------|
A||----------------------|----------------------|----------------------|
E||----------------------|----------------------|----------------------|

----------------------|----------------------|----------------------||
----------------------|----------------------|----------------------||
--4---------5----5----|--5----5----7----5----|--4------------------*||
----------------------|----------------------|---------------------*||
----------------------|----------------------|----------------------||
----------------------|----------------------|----------------------||

----------------------|----------------------|----------------------|
----------------------|----------------------|----------------------|
-------4----5----x----|--5----5----4---------|--5----x----5----4----|
--5---------5----x----|--5----5----5---------|--5----x----5----5----|
----------------------|----------------------|----------------------|
----------------------|----------------------|----------------------|

----------------------|----------------------|----------------------|
----------------------|----------------------|----------------------|
--5----5----5----5----|--7----5----4---------|--5----6----7---------|
--5----5----5----5----|--5----5----5---------|--5----6----7---------|
----------------------|----------------------|--3----4----5---------|
----------------------|----------------------|----------------------|

----------------------|----------------------|----------------------|-------||
----------------------|----------------------|----------------------|-------||
--7----7----7---------|--5----5----7----7----|--7----7----7---------|-------||
--7----7----7---------|--5----5----7----7----|--7----7----7---------|-------||
--5----5----5---------|--3----3----5----5----|--5----5----5---------|-------||
----------------------|----------------------|----------------------|-------||


bass linija
E||----------------------|-------|
B||----------------------|-------|
G||----------------------|-------|
D||-------0----0---------|-------|
A||--5--------------3----|--0----| x ponavljati tijekom intro-a
E||----------------------|-------|

D5
Prekjuce sam bi na nasem lepom standu
video sam jednu lepu devojku mladu
D5
kada sam je pitao da budem njen momak
kazala je: "idi begaj decko, imas stomak"
D5
moj decko, moj decko neces biti ti
dok god deset piva dnevno budes pio ti
D5
kad batalis pivo i ispravis stomak
ti ces mozda jednog dana biti moj momak

Moj stomak je skladna celina
kao sto je skladna i njena guza fina
zasto da se ja ja lisavam stomaka
kada se ni ona ne lisava bataka

kad sam jucer bio na nasem lepom standu
video sam drugu lepu devojku mladu
kad sam je pitao da budem njen momak
kazala je: "ne, ne, decko imas stomak"
moj decko, moj decko neces biti ti
dok god deset piva dnevno budes pio ti
kad batalis pivo i ispravis stomak
ti ces mozda jednog dana biti moj momak

Moj stomak je skladna celina
kao sto je skladna i njena guza fina
zasto da se ja ja lisavam stomaka
kada se ni ona ne lisava bataka

I danas sam bio na nasem lepom standu
video sam trecu lepu devojku mladu
koja mi je kazala imas divan stomak
hajde bejbi, hajde bejbi budi moj momak
zadovoljstvu mome nikad nema kraja
jer nasao sam ja ja devojku ko zmaja
jebale te lutkice postao sam momak
a sacuvao sam i svoj lepi stomak

Moj stomak je skladna celina
kao sto je skladna i njena guza fina
zasto da se ja ja lisavam stomaka
kada se ni ona ne lisava bataka  x4