Atheist Rap - Strikanje

Transkripcija: Milan Pavlovic (paparaco@EUnet.yu)
Home         : http://www.yutabs.f2s.com


  Uvod i tema:
  Fis              Fis              H                H
E|----------------|----------------|----------------|----------------|
H|----------------|----------------|----------------|----------------|
G|----------------|----------------|----------------|----------------|
D|--------4---4---|2---------------|----------------|----------------|
A|----------------|----4---0---2---|----2---2---0---|2---0---2---4---|
E|2---2-----------|----------------|----------------|----------------|

  Strofa:
Fis            Cis
Ja mnogo volim svoju dragu
Kada dodje hladna zima
Tada meni strika novu kapu
    E          H
Od vunice boje voljenog tima

  Refren:
Cis             E    H
Moja mala divno strika
Cis         H           {prelaz - prvi put}
kad bi malo prestala da sika

  Prelaz:
E|----------------|----------------|
H|----------------|----------------|
G|----------------|----------------|
D|----------------|----------------|
A|--------1---1---|2---2---3---3---|
E|2---2-----------|----------------|


  Korisceni riffovi:
Fis-24XXXX
H  -X24XXX
Cis-X46XXX
E  -x79XXX


Ja mnogo volim svoju dragu
Kada dodje hladna zima
Tada meni strika novu kapu
Od vunice boje voljenog tima
Kad pozelim nastrika i dzemper
Nesto siri i duginih boja
"Sada si pravi reper!"
Pre neki dan reko mi Goja

Moja mala divno strika
Kad bi malo prestala da sika

Ja mnogo volim svoju dragu
Kada dodje letnja vrelina
Tada meni sije kupace gace
Od tkanine boje voljenog tima
Kad pozelim sasije i sulju
Nesto siru i duginih boja
"Sada si pravi panker!"
Pre neki dan reko mi Goja

Moja mala divno sije
Kad bi malo prestala da pije