Atheist Rap - U Zmajevom Gnezdu

Transkripcija: Milan Pavlovic (paparaco@EUnet.yu)
Home         : http://www.yutabs.f2s.com


  Uvod i tema:
  A                D                G                D
E|5-5-5-5-5-5-5-5-|----------------|----------------|----------------|
H|5-5-5-5-5-5-5-5-|7-7-7-7-7-7-7-7-|8-8-8-8-8-8-8-8-|7-7-7-8-8-8-7-7-|
G|6-6-6-6-6-6-6-6-|7-7-7-7-7-7-7-7-|7-7-7-7-7-7-7-7-|7-7-7-7-7-7-7-7-|
D|----------------|7-7-7-7-7-7-7-7-|9-9-9-9-9-9-9-9-|7-7-7-7-7-7-7-7-|
A|----------------|----------------|----------------|----------------|
E|----------------|----------------|----------------|----------------|

Strofa: A, D, G, D

  Prelaz:
E|----------------|----------------|
H|----------------|----------------|
G|----------------|----------------|
D|9-9-9-7-7-7-7-7-|6-6-6-4-4-4-4-4-|
A|7-7-7-5-5-5-5-5-|4-4-4-2-2-2-2-2-|
E|----------------|----------------|

Refren: A, D

  Korisceni akordi:
A-X02220
D-XX0232
G-320002


Jedne noci kad sam krenuo kuci
Gde su me cekali cevapcici vruci(s lukom)
Sretnem usput silnog dasu
Sto u pesmi pominje Ladackog Vasu
On rece: "Becar, jesi ti onaj Vlada
Za kog kazu da nikad nije bio deb'o ko sada?"
"Jeste, Djole, ja sam taj,
Al' ne zovu me Vlada nego Debeli Zmaj"

On uperi pogled u mene
I led potece kroz njegove vene
Kaze: "Mili Boze, hvata me panika,
Pa ovaj je deblji neg' pokojni Janika;
Ni Lepi Bora mu nije ravan,
On za debljinu nije plafon vec tavan,
Zar nesto tako stvarno postoji,
O mili Boze, zar se i to moze?"

Radule, Radule, gace ti se nadule