Atheist Rap - Wartburg Limuzina

Transkripcija: Milan Pavlovic (paparaco@EUnet.yu)
Home         : http://www.yutabs.f2s.com

Napomena: sesta zica je prestimovana

  Uvod (bass) :                           Uvod (solo) :
E|----------------|----------------|   E|3p2h3p2-3-------|----5---3-----2-|
H|----------------|----------------|   H|----------------|----------------|
G|----------------|----------------|   G|----------------|----------------|
D|----------------|----------------|   D|----------------|----------------|
A|----------------|----------------|   A|----------------|----------------|
D|5-------0-----2-|--2---0-2---0---|   D|----------------|----------------|

  Tema uvoda :
E|----------------|----------------|
H|----------------|----------------|
G|----------------|----------------|
D|12--------------|----------------|
A|10------0-----2-|--2---0-2---0---|
D|--------0-----2-|--2---0-2---0---|

  Kraj uvoda :
E|----------------|----------------|----------------|----------------|
H|----------------|----------------|----------------|----------------|
G|----------------|----------------|----------------|----------------|
D|5---------------|4---------------|2---------------|----0---2---4---|
A|3---------------|2---------------|0---------------|----------------|
D|----------------|----------------|----------------|----------------|

Glavna tema (strofa, refren, solo): G, Hm, Em, C

  Solo :
  G                                 Hm
E|----------------|----------------|----------------|----------------|
H|----------------|----------------|----------------|----------------|
G|----------------|----------------|----------------|----------------|
D|----------------|----------------|----------------|----------------|
A|----------------|--------0-------|2---------------|(2)-2---0---2---|
D|5---------------|(5)-------------|----------------|----------------|
  Em                                C
E|----------------|----------------|----------------|----------------|
H|----------------|----------------|----------------|----------------|
G|----------------|----------------|----------------|----------------|
D|2-----------0---|----------------|----------------|----------------|
A|----------------|----3---2-------|3p2h3p2h3p2h3---|(3)-------------|
D|----------------|----------------|----------------|----------------|
  G                                 Hm
E|----------------|----------------|----------------|----------------|
H|----------------|----------------|----------------|----------------|
G|----------------|----------------|----------------|----------------|
D|----------------|----------------|----------------|----------------|
A|----------------|--------0-------|----------------|(2)-2---0---2---|
D|5---------------|(5)-------------|4---------------|----------------|
  Em                                C
E|----------------|----------------|----------------|----------------|
H|----------------|----------------|----------------|----------------|
G|----------------|----------------|----------------|----------------|
D|2-----------4---|5---4---2-------|--------0-0-0-0-|2-2-2-2-4-4-4-4-|
A|----------------|----------------|3-3-3-3---------|----------------|
D|----------------|----------------|----------------|----------------|
  G                                 Hm
E|----------------|----------------|----------------|----------------|
H|----8-----------|--------8-------|7---------------|----7-------7---|
G|/7--------------|----7-------7---|--------7-------|--------9-------|
D|----------------|----------------|----------------|----------------|
A|----------------|----------------|----------------|----------------|
D|----------------|----------------|----------------|----------------|
  Em                                C
E|----------------|----------------|----------------|----------------|
H|----------------|--------7-------|8---------------|(8)-------------|
G|9---------------|----------------|----------------|----------------|
D|----------------|----9-----------|----------------|----------------|
A|----------------|----------------|----------------|----------------|
D|----------------|----------------|----------------|----------------|
  G                                 Hm
E|----------------|----------------|----------------|----------------|
H|----------------|----------------|----------------|----------------|
G|7---7-7-7---5---|5-5-5---4---5---|7---7-7-7---5---|5-5-5---4---5---|
D|----------------|----------------|----------------|----------------|
A|----------------|----------------|----------------|----------------|
D|----------------|----------------|----------------|----------------|
  Em                                C
E|------------3---|--------3-------|5-------7-------|8---7---5-------|
H|--------5-------|----5-----------|----------------|----------------|
G|----4-----------|----------------|----------------|----------------|
D|5---------------|----------------|----------------|----------------|
A|----------------|----------------|----------------|----------------|
D|----------------|----------------|----------------|----------------|


  Korisceni akordi:
G -320003
Hm-X24432
Em-022000
C -X32010

Pre godinu dana imali smo kola
Ali su ih svinje pojele do pola
Posto volimo suludu brzinu
Kupili smo sebi Wartburg limuzinu

Wartburg limuzina ima pet brzina
Pravi dosta dima i tocak joj se klima
A gde ima dima i vatra postoji
Jaoj, Bog te jeb'o pa to motor gori
Jes' da motor gori ali zato pici
Pa se svaki sofer sa Wartburgom dici
Sasija mu cvrsta, debela dva prsta
A 'mortizeri tvrdi, stradala mi krsta

Wartburg limuzina, komforna masina
Pravio je Pera iz bivseg DDR-a
I ne da ga je napravio nego svaka cast
Stalno mu iz auspuha curi neka mast
Ima branik od betona, mozes ubit' slona
A sedista mu meka ko kita poneka
Sve uplate prima moga sina deda
Nece dobit' kola taj ko mito ne da

Wartburg limuzina stoji u garazi
Garaza kraj svinjca pa sam ja na strazi
Da mi svinje opet ne pozderu kola
ko sto su mi Trabanta pojele do pola
I odem da se odmorim i popijem par piva
Kad ne lezi vraze svinje hranu traze
Ali Wartburg nije kao Trabant truba
Zbog Wartburga su svinje ostale bez zuba

Wartburg limuzina najduza masina
Cet'ri metra lima i pet meteri dima


***VERZIJA 2***
Transkripcija: pipss@mail.ru
Home         : http://2akordi.net

Info: Bm=Hm

INTRO BASS:
G----------------
D-5--------------
A---5--7-7-5-7-5-
E----------------

***Prvi verse baziran na bas liniji +gitara:

Pre godinu dana imali smo kola
ali su ih svinje pojele do pola
posto volimo suludu brzinu
kupili smo sebi wartburg limuzinu

|C    |Bm   |Am   |     |
|G    |Bm   |Em   |C    |

|G    |Bm   |Em   |C    |

G                 Bm
Wartburg limuzina ima pet brzina
Em                 C
pravi dosta dima i tocak joj se klima
a gde ima dima i vatra postoji
jao Bog te jebo' pa to motor gori

Jest da motor gori ali zato pici
pa se svaki sofer sa wartburgom dici
sasija mu cvrsta, debela dva prsta
a motirzeri tvrdi, stradala mi krsta

G                  Bm
Wartburg limuzina, najduza masina
Em                 C
cetri metra lima i pet meteri dima
Wartburg limuzina, najduza masina
cetri metra lima i pet meteri dima

Wartburg limuzina pokorna masina
pravio je Pera iz bivseg DDR-a
i ne da ga je napravio nego svaka cast
stalno mu iz auspuha curi neka mast

Ima branik od betona mozes ubit slona
a sedista mu meka ko kita poneka
sve uplate prima moga sina deda
nece dobit kola taj ko mito ne da

Wartburg limuzina, najduza masina
cetri metra lima i pet meteri dima
Wartburg limuzina, najduza masina
cetri metra lima i pet meteri dima

Wartburg limuzina stoji u garazi
garaza kraj svinjca pa sam ja na strazi
da mi svinje opet ne pozderu kola
ko sto su mi trabanta pojele do pola

i odem da se odmorim i popijem par piva
al ne lezi vraze svinje hranu traze
ali wartburg nije kao trabant truba
zbog njega su svinje ostale bez zuba