Atomsko Skloniste - Da Li Je Dozvoljeno Razgledanje Vaseg Vrta

Transkripcija: Nikola Kolarovic 


Uvod:
  Em                Em7
E----------------------------
H----------------------------
G-------0-----0-----7-----7--
D-----5---5-----5-----5------
A---2-------2-----2-----7----
E-0--------------------------

(u strofi se akordi razlazu, a u refreni udare po 
 jednom - sem poslednjih Em i Em7, koji se isto razlazu)

Em      Dsus2  C         Dsus2           Em
Prosetam, tako slucajno, uz vas raskosni vrt
Mrko me zagleda onaj ruzni hrt
I kao u literaturi iz habzburskih dana
Sunce se lagano prikrada izmedju njegovanih grana

Em          Dsus2 C         Em     Em7
Usred te puste i nepotrebne raskosi
Em              Dsus2 C        Em    Em7
Primjecujem da gajite svinje i kokosi
Usred te puste i nepotrebne raskosi
Primjecujem da gajite svinje i kokosi

Prosetam, tako slucajno, uz vas raskosni vrt
I sada mi je jasan vas zivotni put
I kao u literaturi iz habzburskih dana
Lada se vasa kci u sjeni njegovanih grana


Korisceni akordi:
  Em  Em7  Dsus2
E-0----0-----0---
H-0----3-----3---
G-0----0-----2---
D-2----2-----0---
A-2----2---------
E-0----0---------

-----------------------------------------------------------
 Sve ispravke i dopune su dobrodosle! (nikolak@bigfoot.com)

 
 
 ***VERZIJA 2***
Album        : U vremenu horoskopa - 1979
Transkripcija: reuf (quentindoa@hotmail.com)


* Napomene:
* 10X: deset puta odsvirati (za svaki slucaj da napisem, mozda neko i ne skonta)
* n1:  kad dignes zicu na 15-tom polju (znaci bend) sviras je tako..kako da je nazovem
*      "bendiranu" jos tri puta i treci put pustas (release), zatim pull off
*      na 12. (bez okidanja)   ----kad se poslusa bez veze je----


Pratnja: Em/Em7 - C - D

 E|------------12----------------------------------15-12----12---------------
 H|---------12----15-12-15b17--15b17-15--12--------------15---15-12----------
 G|---14b16---------------------------------14----------------------15-------
 D|--------------------------------------------------------------------------
 A|--------------------------------------------------------------------------
 E|--------------------------------------------------------------------------
 

 E|---------------------------------------12--15-12-------12-17-15-12--------
 H|--12-15p12---12-------------------12-15-----------12-15------------15-13--
 G|--x--------15--15--14-12--------------------------------------------------
 D|-------------------------14-----------------------------------------------
 A|--------------------------------------------------------------------------
 E|--------------------------------------------------------------------------
 
     [---10x---]       [-----------n1----------]
 E|--------------------------------------------------------------------------
 H|--15b17r15-12---12--15b17-b17-b17-b17r15p12-------------------------------
 G|--------------------------------------------14~---------------------------
 D|--------------------------------------------------------------------------
 A|--------------------------------------------------------------------------
 E|--------------------------------------------------------------------------

 E|--------------------------------------------------------------------------
 H|--------------------------------------------------------------------------
 G|-----------------------------12-----12-14b16--14b16-14b16r14-12-----------
 D|---------12--14p12----12--14----14-----------------------------14~--------
 A|--12s14------------14-----------------------------------------------------
 E|--------------------------------------------------------------------------

 E|--------------------------------------------------------------------------
 H|--------------------------------------------------------------------------
 G|--------------------------------12--14-14p12------------------------------
 D|--------12--14p12----14---12-14--------------14-12------------------------
 A|--12h14-----------14-------------------------------15---------------------
 E|--------------------------------------------------------------------------


 E|------------------------------------------------12--------12----12--15----
 H|---------------------------------------------12-----15-12----15-----------
 G|-----------------------------12----12--14b16------------------------------
 D|---------12--14p12----12--14----14----------------------------------------
 A|--12s14------------14-----------------------------------------------------
 E|--------------------------------------------------------------------------


 E|--15-15b17-15--12---------------------------------------------------------
 H|-----x------------15-12---------------------------------------------------
 G|-----x------------------14-14p12-----14p12----12--------------------------
 D|---------------------------------14--------14----14--....-----------------
 A|--------------------------------------------------------------------------
 E|--------------------------------------------------------------------------