Atomsko Skloniste - Dusa Mi Ulicom Luta

Transkripcija: ????
Poslao       : Mario (marioloncar@freemail.com)
Home         : http://fly.cc.fer.hr/~janje



Intro:G/A#/Am  F/C/G G/A#/Am/E 
  

C                    Am 
Zbog tebe sam navlacio odijela 
C                 Am 
Jer si me takvog htjela 
C                     Am 
I zbog jedne smijesne kravate 
C                Am 
Uspjeli su da te odvrate 

C              Am 
Dusa mi ulicom luta 
C               Am 
Bez kaputa, bez kaputa 
C             Am 
Srce mi kuca jace 
C           Am 
Spale su mi hlace 

C              Am 
Dusa mi ulicom luta 
C               Am 
Bez kaputa, bez kaputa 
C            Am 
A glava neda mira 
C              Am 
Bez sesira bez sesira 
  

Intro:(na koji se svira solo) 

C                      Am 
Zbog tebe sam stavljao manzetne 
C                       Am 
Za uzdahe kad nas netko sretne 
C                  Am 
A onda je doslo do skandala 
C                     Am 
Kad su mi dva dugmeta otpala 
         

***VERZIJA 2***
Transkripcija: Stevie Ray Vaughan

UVOD:
E--------------------------------------------
B--------------------------------------------
G-7-5-7b-5------------5---------5b-----5b----
D----------7-7----5-7---7--5-7-----5-5----7-7
A--------------------------------------------
E--------------------------------------------

E---------------8-5------------------------8-5---------------
B-------------------8-5h6p5--------------------8-5-----------
G------5---5-7--------------7-5----5-7b-------------7-5------
D--5-7---7-----------------------7----------------------7-5-7
A------------------------------------------------------------
E------------------------------------------------------------