Atomsko Skloniste - Extrauterina

Transkripcija: superhik - vucijaglavica@yahoo.com


Glavni rif: 
  H         
E------------------
H------------------
G------------------  Ponoviti 8x
D--4--4--4---------
A--2--2--2^3^2-----
E------------------

   A
E-----------------------------------------------------------
H-----------------------------------------------------------
G----------------------------------------------------------- Ponoviti 2x
D--2--2--2-------2--2--2-------2--2--2-------2-------2------
A--0--0--0^3^0---0--0--0^3^0---0--0--0^3^0---0^3^0---0^3^0--
E-----------------------------------------------------------

 H
Obline sprijeda pozadi
 A
Sto da se radi (sto da se radi)
Gledano gore dolje
Kombinacija do mile volje

Abortusi kao moda
Nakon uboda,nakon uboda,nakon uboda
Abortusi kao nade
Za zene,za zene mlade


E----------------------------------------------------------------------
H--0^7-0^6-0^5-0^4--0^7-0^6-0^5-0^4---0^7-0^8-0^7-0^8--0^7-0^6-0^5-0^4-
G----------------------------------------------------------------------
D----------------------------------------------------------------------
A----------------------------------------------------------------------
E----------------------------------------------------------------------

E------------------------------------------------
H------------------------------------------------
G--2-2-5^2----2-2-5^2----2-2-4^2-2-5^2-2-4^2----- Ponoviti 2x
D----------5----------5----------------------5---
A------------------------------------------------
E------------------------------------------------

Kompletnu figuru ponoviti 2x

Solo

 H
Obline sprijeda pozadi
 A
Sto da se radi (sto da se radi)
Gledano gore dolje
Kombinacija do mile volje

Abortusi kao moda
Nakon uboda,nakon uboda,nakon uboda
Abortusi kao nade
Za zene,za zene mlade


  P.M.--------------
E---------------------
H---------------------
G---------------------  Ponoviti 4x
D---------------------
A---------------------
E--0-0-0^7-0^6-0^5----


Ne postoji nikakva koncepcija
Samo se nudi kontracepcija...


0^3-hammer-on
3^2-pull-of
P.M.-svirati priguseno