Atomsko Skloniste - Johnny

Transkripcija: Van Gogh (smiljcicmi@blic.net)
  

---------------------------------------------
---------------------------------------------
---------------------------------------------
---------------------------------------------
-----7-5-7---5-7-----------------------------
-0-0-0-0-0-0-3-5-----------------------------
riff 1
---------------------------------------------
---5s7---7s5s7-------------------------------
-4-5s7-4-7s5s7-------------------------------
-5-5s7-5-7s5s7-------------------------------
-5-----5-------------------------------------
---------------------------------------------
riff2

riff 1
Kad je Johnny otiso od kuce
Godina je imao devet
Prvu Drinu je popusio sa sest
A odletio sa - vrag bi ga znao
G      D            riff 1
O da, bio je Majcin dan.

I tad je uzeo gitaru
Svi su osjetili magicnu moc
Podigli sretne ruke ka nebu
I pjevali sa njim dan i noc.

riff2
Zivjela trava, zivjela trava
Zivjela trava, zivjela trava
Zivjela trava, zivjela trava
G               D
Zivjela zelena trava
Jer u njoj se dobro spava.

Zivot smo provodili u travi
Poljsko cvijece stavljali u kosu
Bila je sezdeset i osma
Prekrasan Majcin dan.
Prekrasan Majcin dan.

F5       G5      A5        
Prekrasan Majcin dan
Prekrasan Majcin dan
Prekrasan Majcin dan
Prekrasan Majcin dan.

I tad je Johnny uzeo gitaru
Svi su osjetili magicnu moc
Podigli sretne ruke ka nebu
I pjevali sa njim dan i noc.

Zivjela trava, zivjela trava
Zivjela trava, zivjela trava
Zivjela trava, zivjela trava ...