Atomsko Skloniste - Jucerasnje Sutra

Transkripcija: Jovica Brankovic (jovica_86@yahoo.com)
Poslao       : Luga


Uvod:
   C5                 B5           G#5          G5
E:---------------------------------------------------||
A:---------------------------------------------------||
D:-----------------------------------6v---8-6--5v----||
G:--8-7--5v------7--5--3v---5-3----------------------||
H:---------------------------------------------------||
e:---------------------------------------------------||

Fig 1:
E:-1---3-------------------||
A:---------------1---------||
D:----------1--------------||

Fig 2:
E:-1-3----------------------||
A:-------------3-------3--6-||
D:--------1-------1---------||

C5                      Fig 1   B5      C5
Stidljivi djecaci sa celicnim maskama
C5                      Fig 1   B5       C5
Lutaju pod svjetlim svodom prljavih ulica
C5                      Fig 1   B5        C5
Svako danas njima je samo jucerasnje sutra
C5                      Fig 1     B5        C5     (bass: D#)
A ona uz spricu, secer i zlicu, daje se do jutra.

G#5          F5       C5   Fig 2
Dok ja sam lud od vina
G#5          F5            C5       Fig 2
Ona je s drugima zbog morfina.
G#5           F5        C5  Fig 2
Dok ja sam lud od vina
G#5           F5          D5
Ona je s drugima zbog morfina.

uvod....

Pobozne djevojke u majcinim papucama
Cekaju muskarca pristojnog lica
Svako danas njima je samo jucerasnje sutra
A ona uz spricu, secer i zlicu, daje se do jutra.

Dok ja sam lud od vina
Ona je s drugima zbog morfina.
Dok ja sam lud od vina
Ona je s drugima zbog morfina.