Atomsko Skloniste - Ko Ce Tad Na Zgaristu Reci

Transkripcija: Nesko(polydis) - strippy_x@yahoo.com


UVOD:
gitara
e------------------------|------------------------|------------------------|
H------------------------|------------------------|------------------------|
G------------------------|------------------------|------------------------|
D------------------------|------------------------|------------------------|
A------------------------|----------------10-9-7--|----------------10-9-7--|
E------------------------|-----------------8-7-5--|-----------------8-7-5--|
                         |                        |                        |
bass                     |                        |                        |
G------------------------|------------------------|------------------------|
D------------------------|------------------------|------------------------|
A-----------3----3-5-7---|-----------3----3-5-7---|-----------3----3-5-7---|
E-3-5--3-5----5----------|-3-5--3-5----5----------|-3-5--3-5----5----------|


gitara
e------------------------|------------------------|------------------------|
H------------------------|------------------------|------------------------|
G------------------------|------------------------|------------------------|
D------------------------|------------------------|------------------------|
A----------------10-9-7--|----------------10-9-7--|----------------10-9-7--|
E-----------------8-7-5--|-----------------8-7-5--|-----------------8-7-5--|
                         |                        |                        |
bass                     |                        |                        |
G------------------------|------------------------|------------------------|
D------------------------|------------------------|------------------------|
A-----------3----3-5-7---|-----------3----3-5-7---|-----------3----3-5-7---|
E-3-5--3-5----5----------|-3-5--3-5----5----------|-3-5--3-5----5----------|


STROFA 1:
gitara
e------------------------|------------------------|------------------------|
H------------------------|------------------------|------------------------|
G------------------------|------------------------|------------------------|
D------------------------|------------------------|------------------------|
A-7----7----7----7-------|-7----7----7----10-9-7--|-7----7----7----7-------|
E-5----5----5----7-------|-5----5----5-----8-7-5--|-5----5----5----5-------|
                         |                        |                        |
bass                     |                        |                        |
G------------------------|------------------------|------------------------|
D------------------------|------------------------|------------------------|
A-----------3----3-5-7---|-----------3----3-5-7---|-----------3----3-5-7---|
E-3-5--3-5----5----------|-3-5--3-5----5----------|-3-5--3-5----5----------|

gitara
e------------------------|------------------------|------------------------|
H------------------------|------------------------|------------------------|
G------------------------|------------------------|------------------------|
D------------------------|------------------------|------------------------|
A-7----7----7----10-9-7--|-9-----------7----------|-5---------10-9-10-9-7--|
E-5----5----5-----8-7-5--|-7-----------5----------|-3----------8-7--8-7-5--|
                         |                        |                        |
bass                     |                        |                        |
G------------------------|------------------------|------------------------|
D------------------------|------------------------|------------------------|
A-----------3----3-5-7---|------------------------|------------------------|
E-3-5--3-5----5----------|-7------------5---------|-3----------8-7--8-7----|


PRELAZ (iszmedju strofa):
gitara
e------------------------|------------------------|
H------------------------|------------------------|
G------------------------|------------------------|
D------------------------|------------------------|
A----------------10-9-7--|----------------10-9-7--|
E-----------------8-7-5--|-----------------8-7-5--|
                         |                        |
bass                     |                        |
G------------------------|------------------------|
D------------------------|------------------------|
A-----------3----3-5-7---|-----------3----3-5-7---|
E-3-5--3-5----5----------|-3-5--3-5----5----------|



STROFA2 : kao i prva
PRELAZ  :
SOLO    : (Svira se na klavijaturama, gitara svira strofu).
PRELAZ  :
STROFA3 :
PRELAZ  :
STROFA4 :
PRELAZ  :
KRAJ    : Ponove se zadnja 2 takta strofe, a dalje ponavlja se 3 puta glavna
          tema na bassu..


TEKST:

Rodjen sam u soliteru
lift vozi, osmi kat
I prvo sto ko klinac pamtim
mojih susjeda je rad
I vec tad su ne znam zasto rekli
pocni pocni nanovo

Svracali su soliterom
evo ide djecak taj
U skoli ja sam dobro pamtim
dozivio pravi krah
I tad mi dobra mati rece
pocni pocni nanovo

Ljubav mi se uselila
u srce kao vrag
A cure dobro pamtim
nisam bio sasvim drag
I tad mi dobri tata rece
pocni pocni nanovo

Zivim jos u soliteru
lift vozi, osmi kat
I pocinju me plasit vijesti
gdje spominju treci rat
I tko ce tad na zgaristu reci
pocni pocni nanovo