Atomsko Skloniste - Kraljica Cigana

Transkripcija: Nenad Djakovic

BASS
  1DEO
  G--------7-9-10-9-7---4-5-7---7-5---------
  D----5-7--------------------------8-7-5---
  A--5------------------------------------8-
  E-----------------------------------------

  1DEO se svira kroz celu pesmu sem u refrenu naravno

  Sunce nikad nezalazi u njenom kraljevstvu
  Poput ptica djeca lete bjelim nebom
  Modre kise kriju se u njenoj kosi
  U sjenici iskra sto vecnu vatru pali

  B                                                  F
  Ona je kraljica cigana i njenim robom postao sam ja
  B                                                  C
  Ona je kraljica cigana i njenim robom postao sam ja

  *U refrenu je klasicno punjenj bez prelaza*

  Unistila mi telo a dusu prodala djavolu
  Bio sam pseto sto je cuva staklenih ociju
  Vilenjaci kriju se u njenoj dusi
  Krunom od perja ukrasila je svoju kosu

   B                                                  F
  Ona je kraljica cigana i njenim robom postao sam ja
  B                                                  C
  Ona je kraljica cigana i njenim robom postao sam ja

  Pratnja za solo ide ovako
  G-----------------------------------------------------------------
  D-0-0-0-0-0-0-0-0-------------------------------------------------
  A-----------------3-3-3-3-3-3-3-3-----------------1-1-1-1-3-3-3-3-
  E---------------------------------3-3-3-3-3-3-3-3-----------------  

  Ova pratnja se ponavlja vise puta