Atomsko Skloniste - Ljubomoro

Transkripcija: Marko Polo (Torcida000@aol.com)
Home         : http://2akordi.net


Intro+Verse-za intro sviraj 7x
Riff 1
e------------------------------------------II
B------------------------------------------II
G------------------------------------------II
D-5---------------------------------5------II
A---765-77--7--77--7--77--7--77--7----765--II
E-------55--5--55--5--55--5--55--5---------II
        pm     pm     pm     pm

   Moram da ti kazem nesto ljubomoro
   Da ne pravis od mene kretena ljubomoro
   PAUZA

RIFF 2
e--w---------------------------------------------------II
B-17b-----------15------------13-----------------------II
G-----19-18-17------17-16-15-----15-14-13---12---------II
D----------------------------------------------14~~~~--II
A------------------------------------------------------II
E------------------------------------------------------II
  Kad se nocu njojjjjj netko prikrada
  Srce moje puno je jada
  Nikad necu znati dal je moja
  I sve je to zbog tebe ljubomoro

RIFF 1-ponovo
RIFF 2-ponovo

RIFF 3 ili mali solo
e-------------------II
B-------------------II
G-12b---------------II
D-----14-13-12s9----II-okolo 7x
A-------------------II
E-------------------II

RIFF 2-ponovo
RIFF 1-ponovo
RIFF 2-ponovo-sve do kraja dok druga gitara svira riff 1

Ljubomoro.....ljubomoro......ljubomoro....... ljubomorooooo

To je to

b-bend
~~~-vibrato
s-slide
pm-palm mute
w-bend