Atomsko Skloniste - Ne Cvikaj Generacijo

Poslao: NEred_source 


        Am             F
nebo je olovno vetar kresti
             G         Am     E7+9    
neki su vec pobegli u gudure
       Am          F
ti ne bezi stani stani
      G          D
sedi jedi sedi jedi

ref:
E
sto te panika hvata 
B          A  
nece biti nece biti
E
treceg svetskog rata

ref2:
Em             G            D         A      
necemo valjda biti mi ta nesretna generacija
Em                  G      D               A 
nad kojom ce se izvrsiti velika poslednja racija


e|---|
B|-8-| E7+9
G|-7-|
D|-6-|
A|-7-|
E|---|


***VERZIJA 2***
Napisao i spremio: Miralem Batlak

Uvodni solo:
e|-----------------5--------------|---------------5---------------|
B|----------------5-8-5-------6~~-|-8b-8b 8b~~---5-8-5------------|
G|-7b-7-5-7b----7b-----8-7-5------|------------7b-----8-7-5-7-5-5-|
D|----------7~~-------------7-----|------------------------7---7--|
A|--------------------------------|-------------------------------|
E|--------------------------------|-------------------------------|

e|---------------------------------15b-|---------------------------|
b|--8-10-8-8-9---15b-15b-------13------|--------------13~-15h13h15-|
G|-9------9---9----------14~~----14----|-14b-14b-12-14-------------|
D|-------------------------------------|---------------------------|
A|-------------------------------------|---------------------------|
E|-------------------------------------|---------------------------|

e|-------------------------------------------------------------------------|
b|-13~~-12~~-13-12-13-12--12-13-12-13-12--12-13-12-13-12--12-13-12-13-12---|
G|----------------------14--------------14--------------14--------------14-|
D|-------------------------------------------------------------------------|
A|-------------------------------------------------------------------------|
E|-------------------------------------------------------------------------|

e|----------------5--------------------------|
b|---------------5-8-5-----------8b~~-8b-5---|
G|-12-14-12----7b-----8-7-5-5-7-5---------7--|
D|---------14--------------7----------------7|
A|-------------------------------------------|    
E|-------------------------------------------|

Ovaj rad je vec uradjen u GP ali je NEred_source zmolio da ga neko 
napise u .txt pa evo izvoli te.

***VERZIJA 3***
Transkripcija: SALE.S.

Bass 
prvi PART(polako):
G--------------------------------------------------------------|
D---------------------2---------------------------------------2|
A---0--0-r--0-0--0-3----------------------3----------------2---|
E-----------------------1--1-r--1-1--1-5----3--3-r--3-3--3-----|

prvi 3 puta         
G-------------------|
D-----6-4-----------|
A-0-------64-6------|
E--------------0----|

4ti put
G-----------------------------------------------------------------------------|
D-0------2--2-2--2-2--2-2-0----------------------------------------------2----|
A----------------------------2--2-2--2-2--2-2-2-000000000000000000000000------|
E-----------------------------------------------------------------------------|

drugi PART(brze):
G-------------------------------------------------------
D-------------------------------------------------------
A--------------------3--3--3--------------------5--5--5-
E--5--5-5--5-5--5-5-----------3--3-3--3-3--3-3----------
                                 samo jednom 
G-------------------------------------------------------------|
D-----------------------------------------------------53-3----|
A--------------------3--3--3--------------------5----5--5-53--|
E--5--5-5--5-5--5-5-----------3--3-3--3-3--3-3----------------|
                             
G-------------------------------------------------------------|
D-----------------------------------------------------53-3----|
A--------------------3--3--3--------------------5----5--5-53--|
E--5--5-5--5-5--5-5-----------3--3-3--3-3--3-3----------------|

***VERZIJA 4***
Transkripcija: ???
Home         : http://www.topolanet.co.yu/~korozija/


Ovo su tablature za bass(posto je moj instrument bas),
a dodao sam i gitaru. 

Ovo ide za vreme gitarskog uvoda.
Jedno bluzersko rastavljanje na durove i molove.

            Amol               Fdur           Gdur              E
G|-------------------------------------------------------------------|
D|-------------------------------------------------------------------|
A|-------3---7---3------------0--3-3-0-------2---5-5-2---------5-6-7-|
E|----5-------------5---3--1------------1--3-----------3----5--------|

Citav ovaj bluzerski ritam ide i kroz strofe.

Am             F       
Nebo je ono(?),vetar tresti 
    G                  e
Neki su vec pobjegli u gudure
Am             F
Ti ne bjezi,stani,stani
G               e
Sjedi jedi,sjedi jedi

Gospoda lazu,spiker kresti
Neki su zaglavili u psihosi
Ti ne bjezi satni stani
Sjedi jedi,sjedi jedi

ref:

E <--- najdeblja zica
Sto te panika hvata
H             A
  Ne ce biti nece biti
E <--- na 3. zici
III svetskog rata


Kraj:

    E          G       D            A
Necemo valjda biti mi ta nesrecna generacija,
Nad kojom ce se izvrsiti velika poslednja racija(?)

* na kraju ide galopirajuci ritam nesto u fazonu Steve Haris-a

     E   G   D  A
G-|------------------|
D-|--2*--------------|
A-|----------5*------|
E-|-----3*------5*---|

* nekoliko puta