Atomsko Skloniste - Nek' Vam Je Sa Srecom

Transkripcija: reuf (quentindoa@hotmail.com)
Album        : Ne cvikaj generacijo - 1977



Riff: Intro 4x

 E|-----------------------------------------
 H|--8--7-x--8------------------------------
 G|--9--7-x--9-----nesto slicno svira bass-(i na gitari dobro zvuci)
 D|--9--7-x--9------------------------------
 A|--7--7-x--7--------7p5-------------------
 E|---------------5h7-----7-----------------



1. Strofa
___________________________
Riff 8x

 Neuroze i alkohol
 radjaju debile

G5	     A5    C5	A5
 i ako su im majke
	   Riff 2x
 ljepotice bile


2. Strofa - isto k'o i prva
___________________________
Radja ono krice
novi narkomani
pravljeni u basti
opojne nemani



Solo
Pratnja:

     Riff 8x
 E|--------------------------------------------------------------------------
 H|--15b17-----------------12-13-12h13p12------------------------------------
 G|--------14b16r(14)b16-----------------14--12-------7h9p7---7--9b11r9-7-9---
 D|---------------------------------------------14----------9----------------
 A|--------------------------------------------------------------------------
 E|--------------------------------------------------------------------------


 E|--------------------------------------------------------------------------
 H|--15b17----------------12-13-12h13p12-------------------------------------
 G|--------14b16r(14)b16----------------14--12-------7h9p7---7---9b11--------
 D|--------------------------------------------14----------9-----------------
 A|--------------------------------------------------------------------------
 E|--------------------------------------------------------------------------

     G5                             A5                  C5               A5
 E|----------------------------------------------------10b12-r10-7-7-8-7-----
 H|----------8--------8--------8---10b12r10-8-10--10~--------------------10--
 G|------7-9------7-9------7-9-----------------------------------------------
 D|--7-9------7-9------7-9---------------------------------------------------
 A|--------------------------------------------------------------------------
 E|--------------------------------------------------------------------------

                                     Riff 2x
 E|--------------------------------------------------------------------------
 H|--10p8h10p8-10p8-----10p8h10p8---10b12r10-8-10-8~-------------------------
 G|----------------------------------------------------9p7-7-9-7h9-9---------
 D|--------------------------------------------------------------------------
 A|--------------------------------------------------------------------------
 E|--------------------------------------------------------------------------

	(opet strofa)	......neurozeeeeeeeee...

 E|-----------12-------15b17---15b17--15-12----------------------------------
 H|--------12----15-12---------------------15-12-----------------------------
 G|--14b16---------------------------------------14-12------...itd.----------
 D|-----------------------------------------------------14-------------------
 A|--------------------------------------------------------------------------
 E|--------------------------------------------------------------------------


___________________________________

JOS Jednom 1. i  2. strofa pa .....


G5              A5
 Nek' vam je sa srecom
C5          A5         Riff 2x
 U krevetu     i izvan krevata

G5         A5    C5   A5           Riff
Cuvajte se samo    ......nezdravog dijeteta   - 2X



__________________________________________________________________
To bi bilo to. Solo bi treb'o biti Ok. Ako vam nesto nije jasno slobodno
pitajte...samo dobro poslusajte solo i tab bi trebo biti jasan....