Atomsko Skloniste - Pomorac

Transkripcija: Sandro

Riff 1

      prvi dio                 drugi dio
|--------------------|------------------------------|
|--------------------|------------------------------|
|--------------------|------------------------------|
|--------------------|------------------------------|
|--12-12-12-12-12-12-|-14---14---14---12---14---14--|
|--10-10-10-10-10-10-|-12---12---12---10---12---12--|

Riff 2

 pomorac sam majko na bijelome brodu
(ovdje je u orginalnoj sminci studijski dodan jedan )
(dio ali ako se svira jednom gitarom onda ide ovako)
|----------|-----------------|--------------|
|----------|-----------------|--------------|
|----------|-----------------|--------------|
|----------|-----------------|--------------|
|--10------|-12--------------|-14-12--14-12-|
|--8-------|-10--------------|-12-10--12-10-|

Riff 3
|----------------------------|
|----------------------------|
|----------------------------|
|----------------------------|
|--14--14-12-14--14-12-14----|
|--12--12-10-12--12-10-12----|

Riff 4
|------------------------------|
|------------------------------|
|------------------------------|
|------------------------------|
|--14--14--12--12--10-10-9--9--|
|--12--12--10--10--8--8--7--7--|

Malo poslusajte pjesmu da dobijete neki osjecaj jer se riffovi na
prijelazima obicno ne sviraju citavi

Tekst:

Riff 1
Cetri broda cetri mora
i lumbago sto me hvata
K'o mog dobrog tatu iza rata

Riff 2
Pomorac sam majko na bijelome brodu
Pomorac sam majko u modrome grobu

Riff 1
Cetri ruke cetri raja
I cura sto me hvata
K'o dorata bijela oko vrata

Riff 2
Pomorac sam majko na bijelome brodu
Pomorac sam majko u modrome grobu
Riff 3

Riff 4 (tokom solaze na klavijaturama)

Riff 2
Pomorac sam majko na bijelome brodu
Pomorac sam majko u modrome grobu

Riff 1
Cetri svadje cetri tuce
Ntiko ne zna ko je bio
A mozda sam mladjan i ubio

Riff 2
Pomorac sam majko na bijelome brodu
Pomorac sam majko u modrome grobu

Riff 1
Cetri noci kroz oluje
Olupina dok izranja
Svako svoju toplu kucu sanja

Riff 2
Pomorac sam majko na bijelome brodu
Pomorac sam majko u modrome grobu
Riff 3

Riff 2
Pomorac sam majko na bijelome brodu
Pomorac sam majko u modrome grobu
Riff 3


***VERZIJA 2***
Poslao       : Mario (marioloncar@freemail.com)
Home         : http://fly.cc.fer.hr/~janje


Main rif: E-D  E-D

Cetiri broda cetiri mora
I lumbago sto me hvata
K'o mog dobrog tatu iza rata

C           D                 E
Pomorac sam majko na bijelome brodu
C           D               E
Pomorac sam majko u modrome grobu

Cetiri ruke cetiri raja
I cura sto me hvata
K'o dorata bijela oko vrata

Cetiri svadje cetiri tuce
Nitko ne zna tko je bio
A mozda sam mladjan i ubio

SOLO:E/D/C/B

Cetiri noci kroz oluje
Olupina dok izranja
Svatko svoju toplu kucu sanja

***VERZIJA 3***
Transkripcija: Sale.S


BASS
Intro                6x
G---------------------------------|
D---------------------7-5---------|
A---7--7--7--5--7--7------7-5-----|
E---------------------------------|

Chorus
G----------------------------------------------------------------|
D-----------------------------5--------5-------------------------|
A-3---3-3-3---5--5---5----7--------7--------3---3-3-3---5--5---5-|
E----------------------------------------------------------------|

Verses                         6x
G--------------------------------|
D--------------------7-5---------|
A--7--7--7--5--7--7------7-5-----|
E--------------------------------|

Chorus
G----------------------------------------------------------------|
D-----------------------------5--------5-------------------------|
A-3---3-3-3---5--5---5----7--------7--------3---3-3-3---5--5---5-|
E----------------------------------------------------------------|

prelaz
G-------------------------------------------------|
D-------------------------------------------------|
A----7-------------10---7-------------10---7---\--|
E-----------8------------------8------------------|

Solo                    8x
G--------------------------|
D--------------------------|
A--7--7--5--5--3--3--2--2--|
E--------------------------|

Chorus
G----------------------------------------------------------------|
D-----------------------------5--------5-------------------------|
A-3---3-3-3---5--5---5----7--------7--------3---3-3-3---5--5---5-|
E----------------------------------------------------------------|

Verses                         6x
G--------------------------------|
D--------------------7-5---------|
A--7--7--7--5--7--7------7-5-----|
E--------------------------------|

ond aovo sviraj

Chorus
G----------------------------------------------------------------|
D-----------------------------5--------5-------------------------|
A-3---3-3-3---5--5---5----7--------7--------3---3-3-3---5--5---5-|
E----------------------------------------------------------------|

Verses                         6x
G--------------------------------|
D--------------------7-5---------|
A--7--7--7--5--7--7------7-5-----|
E--------------------------------|

Chorus
G----------------------------------------------------------------|
D-----------------------------5--------5-------------------------|
A-3---3-3-3---5--5---5----7--------7--------3---3-3-3---5--5---5-|
E----------------------------------------------------------------|

prelaz
G-------------------------------------------------|
D-------------------------------------------------|
A----7-------------10---7-------------10---7---\--|
E-----------8------------------8------------------|

***VERZIJA 4***
Transkripcija: Nenad Djakovic

BASS:
  Deo 1          *                    *
  G--------------------------------------------
  D--------------7-5-4----------------7-5-4----  x2
  A--7-7-7-5-7-7-------5--7-7-7-5-7-7-------5--
  E--------------------------------------------

  Ovaj prelaz*svira samo bass!

  Deo 1:
  Cetri broda cetri mora
  I lumbago sto me hvata
  K`o mog dobrog tatu iza rata.

  C           D                 E     E G E G / bass ne pravi
  Pomorac sam majko na bijelome brodu         / nikakve prelaze
  C           D                  E
  Pomorac sam majko u modrome grobu

  Deo 1:
  Cetri ruke cetri raja
  I cura sto me hvata
  Ko dorata bijela oko vrata

  C           D                 E     E G E G
  Pomorac sam majko na bijelome brodu
  C           D                 E  H G E H G E
  Pomorac sam majko u modrome grobu

  SOLO pratnja: E D C H

  Pomorac sam.....

  Deo 1:
  Cetri svadje cetri tuce
  Niko nezna ko je bio
  A mozda sam mladjan i ubio

  Pomorac sam.....

  Deo 1:
  Cetri noci kroz oluje
  Olupina dok izranja
  Svako svoju toplu kucu sanja

  Pomorac sam.....

***VERZIJA 5***
Transkripcija: malmsteen junior

SOLO:
e--------------------------------------
b--------------------------------------
g--------------------------------------
d----5------5-----7s9--7-5--4-5-7-5-4--
a--7---7--7----7-----------------------5s6- (2x)
e---------------------------------------

e--------------------------------------
b--------------------------------------
g-------------------9--7--5s3--3-4-5---
d---5---7--7-5---8---------------------
a-7---7--------7-----------------------
e--------------------------------------

e--------------------------------------
b--------------------------------------
g-------------------9--7--5s3--1-2-4---
d---5---7--7-5---8---------------------
a-7---7--------7-----------------------
e--------------------------------------